Gametabs
Home
Tabs
Random

Yamato Man

Average rating: No ratings

Composer:

Tabber:

Style:

Instrument:

Created: March 16, 2016 at 12:00 AM

            Yamato Man
Mega Man 6
Yuko Takehara
ltm_1988
3/12/2016

    H               E   Q       E    
E||---------------------------------|
B||---------------------------------|
F#|---------------------0-------2~--|
C#|-----------------2---------------|
G#|-----------------------------0---|
D#|-----------------0---0-----------|

    E   E   Q       E   E   E   E     E   E   E   E   E   E   E   E  
E||---------------------------------|---------------------------------|
B||---------------------------------|-------------------------0---2~--|
F#|*----2---2~------0---2~------5~--|-----2---0---2-------2-----------|
C#|*--------------------------------|-----------------------------0---|
G#|-----0---0-------------------0---|-----0---0-------0---3---0-------|
D#|-----------------0---3---0-------|---------------------------------|

    E   E   Q       E   E   E   E     E   E   E   E   E   E   E   E  
E||---------------------------------|---------------------------------|
B||-----2---2~------0---2~------5~--|-----4---2---4-------------------|
F#|---------------------------------|-------------------------0---2~--|
C#|-----0---0-----------0-------2---|-----2---2-------2---2-----------|
G#|-----------------0-------0-------|---------------------2-------0---|
D#|---------------------------------|-------------------------3-------|

    E   E   Q       E   E   E   E     E   E   E   E   E   E   E   E  
E||---------------------------------|---------------------------------|
B||---------------------------------|-------------------------0---2~--|
F#|-----2---2~------0---2~------5~--|-----2---0---2-------2-----------|
C#|---------------------------------|-----------------------------0---|
G#|-----0---0-------------------0---|-----0---0-------0---3---0-------|
D#|-----------------0---3---0-------|---------------------------------|

    E   E   E   E   E   E   E   E     E   E   E   Q.          E   E  
E||---------------------------------|---------------------------------|
B||-----0---2---0---2~------3---4~--|---------------------------------|
F#|---------------------------------|-----4---0---2~------------------|
C#|-----0---0-----------0-------2---|-----2---2-------------------7~--|
G#|-----------------0-------0-------|-------------0---------------0---|
D#|---------------------------------|-------------------------0-------|

    E   E   E   E   E   E   E   E     E   E   E   E   E   E   E   E  
E||-----------------7---6---4-------|---------2-------7---6---4-------|
B||-----4---7---4---------------4---|-----4-------4---------------4---|
F#|-----------------0-----------5---|-----5---4---5-----------0-------|
C#|-----7---7~----------7~----------|-----------------9---7-------2---|
G#|---------------------------------|---------------------------------|
D#|---------------------------------|---------------------------------|

    E   E   E   E   E   E   E   E     E   E   E   E   E   E   E   E  
E||-------------------------2~------|-----------------9---7---6-------|
B||---------------------------------|-----11----------11--9---7-------|
F#|-------------4---------------0---|---------12------------------7---|
C#|-5~--------------0---------------|-----12------12--------------7---|
G#|---------2-----------2---0-------|---------------------------------|
D#|-----3-------3-------------------|---------------------------------|

    E   E   E   E   E   E   E   E     E   E   E   E   E   E   E   E  
E||-----------------7---6---4-------|---------2-------7---6---4-------|
B||-----4---7---4---------------4---|-----4-------4---------------4---|
F#|-----------------0-----------5---|-----5---4---5-----------0-------|
C#|-----7---7~----------7~----------|-----------------9---7-------2---|
G#|---------------------------------|---------------------------------|
D#|---------------------------------|---------------------------------|

    E   E   E   E   E   E   E   E     E   E   E   E   E   E   E   E  
E||---------------------------------|-------------------------14------|
B||---------------------------------|-----------------14--------------|
F#|-------------0-----------7---0---|-----12--12~---------14--12------|
C#|-0---------------0---9---7-------|-----12------12--------------12--|
G#|---------2-----------------------|---------------------------------|
D#|-----3---------------------------|---------------------------------|

    E   E   E   Q       E   E   E     E   E   E   Q       E   E   E  
E||---------------------------------|---------------------------------|
B||-------------------------0-------|-----0---------------------------|
F#|-------------2-------------------|-4-------4-----------2---4-------|
C#|-3~------3~----------5---3-------|-----0---5---5~------5---5---0---|
G#|-0---3-------3~--------------3---|-2-----------5~------------------|
D#|---------------------------------|---------------------------------|

    E   E   E   Q       E   E   E     E   E   E   Q       E   E   E  
E||---------------------------------|---------------------------------|
B||-------------2-----------4-------|-2---4---2-----------0---0-------|
F#|-5~------------------0-----------|---------2---2~------2-------4~--|
C#|-----2---5---2~----------2-------|-0---3-------3~----------3-------|
G#|-3---------------------------3---|---------------------------------|
D#|---------------------------------|---------------------------------|

    E   E   E   E   E   E   E   E     E   E   Q       E   E   E   E  
E||---------------------------------|---------------------------------|
B||-------------0-------------------|---------------------0-------2~--|
F#|-----4---4-------4---2---0-------|-----------------4---------------|
C#|-----------------------------2~--|-----------------------------0---|
G#|-------------------------2-------|-------------------------2-------|
D#|-----0---0-------0---3-------0---|-----0---0-------0---4-----------|

    E   E   E   E   E   E   E   E     E   E   E   E   E   E   E   E  
E||-------------0-------------------|---------------------2-------4~--|
B||-----2---4-------4---2---0---4~--|-----------------4---------------|
F#|---------------------------------|---------------------------------|
C#|-----0---0-------0---------------|---------------------------------|
G#|---------------------------------|-------------------------2-------|
D#|---------------------0---1---0---|-----0---1---0---4---0-------0---|

    E   S S E   E   E   E   E   E     E   E   E   Q       E   E   E  
E||-----4---2-------2---------------|-------------------------2---4~--|
B||-------------4-------4---2---4~--|---------------------4-----------|
F#|---------------------------------|---------0-----------0---4---5~--|
C#|---------------------------------|-2---3-------2-------------------|
G#|-0-----0-----0-------0-----------|---------------------------------|
D#|-----------------------------0---|---------------------------------|

    E   S S E   E   E   E   E   E     E   E   E   E   E   Q       E  
E||-----4-------4---6---7---6---4~--|---------------------2-------4~--|
B||---------7-----------------------|-0---------------4---------------|
F#|---------------------------------|-----4---0---2---0---4-------5~--|
C#|---------------------------------|---------------------------------|
G#|-0-----0-----0-------0-----------|---------------------------------|
D#|-----------------------------0---|---------------------------------|

    E   S S E   E   E   E   E   E     E   S S E   Q       E   E   E   
E||-----4---2-------2---------------|---------------------------------|
B||-------------4-------4---2---4~--|-----2---0---------------0-------|
F#|---------------------------------|-------------2~------4-------4~--|
C#|---------------------------------|---------------------------------|
G#|-0-----0-----0-------0-----------|-0-----0-----0-------0-----------|
D#|-----------------------------0---|-----------------------------0---|

    E   E   Q       E   E   E   E     H               E   Q       E   x3 W
E||---------------------------------|---------------------------------||-4-
B||---------2~----------------------|---------------------------------||-4-
F#|-----4-----------4---2---0---2~--|---------------------0-------2~-*||-5-
C#|-----0---3-------0---------------|-----------------2--------------*||-7-
G#|---------------------3---2---3---|-0---------------------------0---||-7-
D#|-0-------------------------------|-----------------0---0-----------||-5-

        
Comments

No comments yet