Gametabs
Home
Tabs
Random

Mr. X

Average rating: 5.000

3 ratings

Composer:

Tabber:

Style:

Instrument:

Created: January 10, 2012 at 12:00 AM

            Mr. X's Stages
By Yuko Takehara	
Mega Man 6
Tabbed by Brainsick Fungus
10/11/11

Guitar 1: Lead (parts 1 and 2)
Guitar 2: Harmony (part 2)


Guitar 1, part 1
e-7-9-5-7---5-0-------------7-9-5-7---5-0---------------------|
B---------7-----7-------------------7-----7-7--10--12---------|
G-----------------6-7-6---------------------------------------|
D-----------------------7-------------------------------------|
A-------------------------------------------------------------|
E-------------------------------------------------------------|

e-7-9-5-7---5-0-------------7-9-5-7---5-0---------------------|
B---------7-----7-------------------7-----7-7--10--12---------|
G-----------------6-7-6---------------------------------------|
D-----------------------7-------------------------------------|
A-------------------------------------------------------------|
E-------------------------------------------------------------|

guitar 1, part 2
e-------------------------------------------5-9-5---7---------|
B-5-7-5-7-8------5-7-------5-7-5-8------5-7-------7-----------|
G-----------7--7-----6-------------7--7-----------------------|
D----------------------7--------------------------------------|
A-------------------------------------------------------------|
E-------------------------------------------------------------|

e-------------------------------------12-12-------------------|
B-12----12-15-14-------12-13-14-13-14-------15-12-14-15-12----|
G----14----------14-14----------------------------------------|
D-------------------------------------------------------------|
A-------------------------------------------------------------|
E-------------------------------------------------------------|

e-------------------------------------------------------------|
B-12-14-12-14------9-11---------------------------------------|
G---------------11--------------------------------------------|
D-------------------------------------------------------------|
A-------------------------------------------------------------|
E-------------------------------------------------------------|


Guitar 2, part 2
e---------------------------------------------5-----7---------|
B-2-3-2-3-5-0--0-2-2-------3-2-3-5-0--0-----7---7-------------|
G--------------------2------------------6-6-------6-----------|
D----------------------4--------------------------------------|
A-------------------------------------------------------------|
E-------------------------------------------------------------|


e------------------------------9-9-7--------------------------|
B-8-7-8-12-10-----7-9-11-10-11-------7-10-8----------------5-7|
G-------------9-9---------------------------7--7-9-7-6---6----|
D-------------------------------------------------------------|
A-------------------------------------------------------------|
E-------------------------------------------------------------|
        
Comments

@Sharingon700 (January 11, 2012 at 12:33 AM)

Nice :) great tab