Gametabs
Home
Tabs
Random

Wave Man

Average rating: No ratings

Composer:

Tabber:

Style:

Instrument:

Created: June 06, 2009 at 12:00 AM

            Wave Man
By Mari Yamaguchi
Megaman V
6/3/09
Tabbed by Brainsick Fungus


e-1-0--0----0------0-1-------------------------
B--------3----3--3-----3-1---1---1-2-----------
G------------------------------2---------------
D------------------------------------------X2--
A----------------------------------------------
E----------------------------------------------

e------10------12-13--15-12-13-12-10-8-10-8-------------------------------------
B-8-11----8-11------------------------------------------------------------------
G-------------------------------------------------------------------------------
D-------------------------------------------------------------------------------
A-------------------------------------------------------------------------------
E-------------------------------------------------------------------------------

e------10------12-13--15-12-13-12-10----17-15-----------------------------------
B-8-11----8-11-----------------------13-----------------------------------------
G-------------------------------------------------------------------------------
D-------------------------------------------------------------------------------
A-------------------------------------------------------------------------------
E-------------------------------------------------------------------------------

e-13-12--12-10--12-10--10-12-13-10----------------------------------------------
B----------------------------------13-------------------------------------------
G-------------------------------------------------------------------------------
D-------------------------------------------------------------------------------
A-------------------------------------------------------------------------------
E-------------------------------------------------------------------------------


e-13-12--12-10--12-10--10-12-13-10--------------15-15-15------------------------
B-----------------------------------------10------------------------------------
G--------------------------------------11----12---------------------------------
D-----------------------------------12------------------------------------------
A-------------------------------------------------------------------------------
E-------------------------------------------------------------------------------

e-----------------17-19----------------------------17-19-----------21-19-17-----
B-19--19-17-19-20-------17h19-17---19--19-17-19-20-------17h19-17---------------
G-------------------------------------------------------------------------------
D-------------------------------------------------------------------------------
A-------------------------------------------------------------------------------
E-------------------------------------------------------------------------------

e-15--15-14-15-17-14-----------13--13-12-13-15-12-12-12-12--17------------------
B--------------------15-17-15---------------------------------------------------
G-------------------------------------------------------------------------------
D-------------------------------------------------------------------------------
A-------------------------------------------------------------------------------
E-------------------------------------------------------------------------------

        
Comments

No comments yet