Gametabs
Home
Tabs
Random

Wave Man

Average rating: No ratings

Composer:

Tabber:

Style:

Instrument:

Created: June 01, 2015 at 12:00 AM

            Wave Man
Mega Man 5
Mari Yamaguchi
ltm_1988
5/27/2015

    E.    E   S E   E.    E   S E     E.    E   S E   E.    E   S E
C||---------------------------------|---------------------------------|
G||---------------------------------|---------------------------------|
D#|-2-----1~--------1---------------|-1---------------------1-----2---|
A#|-------4---4-----------4~--4~----|-------4~--4~----4-----4---4-----|
F||-2---------------2---------------|-2---------------2---------------|
C||-------------2---------------2---|-------------2---------------2---|

    E.    E   S E   E.    E.    E     E.    E   S E   E   S E   E.
C||---------------------------------|---------------------------------|
G||---------------------------------|---------------------------------|
D#|---------------------------------|-----------------2~----2---3~----|
A#|-4-----2~------------------------|-----------------2-----2---3~----|
F||-5-----2---2-4---2-----------0---|-2-------------------4-----------|
C||-----------------------4---------|-------0---0-0-------------------|

    E.    E   S E   E.    E   S E     E.    E   S E   E.    E   S E
C||---------------------------------|---------------------------------|
G||---------------------------------|---------------------------------|
D#|-2-----1~--------1---------------|-1---------------------1-----2---|
A#|-------4---4-----------4~--4~----|-------4~--4~----4-----4---4-----|
F||-2---------------2---------------|-2---------------2---------------|
C||-------------2---------------2---|-------------2---------------2---|

    E.    E   S E   E.    E.    E     E.    E   S E   E   S E   E.
C||---------------------------------|---------------------------------|
G||---------------------------------|---------------------------------|
D#|---------------------------------|-----------------2~----2---3~----|
A#|-4-----2~------------------------|-----------------2-----2---3~----|
F||-5-----2---2-4---2-----------0---|-2-------------------4-----------|
C||-----------------------4---------|-------0---0-0-------------------|

    E   S E   S E   E.    E   S E     E.    E   S E   E.    S S S E
C||-------2---------4-----5~--------|-------------------------7-------|
G||-0---3-----0-3-------------------|---------------------------------|
D#|*--------------------------------|---------------------------------|
A#|*------4---4-----------4---4-----|-------4---4-----------4---4-4---|
F||-2---------------2---------------|-2---------------2---------------|
C||-------------2---------------2---|-------------2-------------------|

    E   S E   S E   E   S E   S E     E.    E   S E   E.    E   S E
C||-4---5-4---2-----0---2-----------|---------------------------------|
G||-----------------------5~--------|---------------------------------|
D#|---------------------------------|-----------------------------3---|
A#|-------2---2-----------2---2-----|-------2---2---------------------|
F||-0---------------0---------------|-0---------------0-----0---1-----|
C||-------------0---------------0---|-------------0-------------------|

    E   S E   S E   E.    E   S E     E.    E   S E   E.    S S S E
C||-------2---------4-----5~--------|-------------------------7-------|
G||-0---3-----0-3-------------------|---------------------------------|
D#|---------------------------------|---------------------------------|
A#|-------4---4-----------4---4-----|-------4---4-----------4---4-4---|
F||-2---------------2---------------|-2---------------2---------------|
C||-------------2---------------2---|-------------2-------------------|

    E   S E   S E   E.    S S S E     E   S E   E.    E.    E   S E
C||-4---5-4---------0-------9---7~--|---------------------------------|
G||-------0---7-----------0---0-----|-----0-5---5-----5---------------|
D#|-----------4---------------------|---------------------------0-----|
A#|-2-------------------------------|-----------------------6-----4~--|
F||-----------------7---------------|-7-------------------------------|
C||-------------7---------------7---|---------------------------------|

    E.    E   S E   E.    E   S E     E.    E   S E   E.    E   S E
C||-5-----4~--------4---------------|-4---------------------4-----5---|
G||-----------------------7~--------|-------7~--------7---------------|
D#|-------2---2---------------------|---------------------------------|
A#|-0---------------0-----7---7-----|-0-----7---7-----0-----7---7-----|
F||-------------0---------------0---|-------------0---------------0---|
C||---------------------------------|---------------------------------|

    E.    S Q       Q       Q         Q       Q       Q       Q
C||---------------------------------|---------------------------------|
G||-7-----5~------------------------|---------------------------------|
D#|-6-------------------------------|-4-------6-------7-------6~------|
A#|-------------------------6-------|---------------------------------|
F||---------4-------7---------------|---------------------------------|
C||---------------------------------|---------------------------------|

    E.    E   S E   E.    E   S E     E.    E   S E   E.    E   S E
C||-5-----4~--------4---------------|-4---------------------4-----5---|
G||-----------------------7~--------|-------7~--------7---------------|
D#|-------2---2---------------------|---------------------------------|
A#|-0---------------0-----7---7-----|-0-----7---7-----0-----7---7-----|
F||-------------0---------------0---|-------------0---------------0---|
C||---------------------------------|---------------------------------|

    Q       Q       Q       Q         E   S E   E.    Q       E   E
C||-0-------------------------------|-----7-----7-----7~--------------|
G||-7~------------------------------|---------------------------------|
D#|-------------------------6~------|---------------------------------|
A#|-----------------8---------------|---------------------------------|
F||---------9-----------------------|-----------------------------9---|
C||---------------------------------|-7-----7---7-----7-------7-------|

    E   S E   S E   E   E   E   E     E   S E   S E   E   S S E   E
C||-6~------------------------------|-6-----------6---7-----9-----11--|
G||-------0-----7-----------0---7---|-------9-----7-----------0-------|
D#|-8---------------8---------------|-8---------------8-----------11--|
A#|-----6-----6---------6-----------|-----6-9---6---------6-----------|
F||---------------------------------|---------------------------------|
C||---------------------------------|---------------------------------|

    E   S E   S E   E   E   E   E     E   S E   S E   E   E   E   E
C||---------------------------------|---------------------------------|
G||-11----9~------------------------|---------------------------------|
D#|-10----------11--10--------------|-10----------11--10--------------|
A#|-------9-----------------11------|-------9-----------------11------|
F||-----11----11--------11------11--|-----11----11--------11------11--|
C||---------------------------------|---------------------------------|

    E   S E   S E   E   E   E   E     E   S E   S E   E   S S E   E
C||-6~------------------------------|-6-----------6---7-----9-----11--|
G||-------0-----7-----------0---7---|-------9-----7-----------0-------|
D#|-8---------------8---------------|-8---------------8-----------11--|
A#|-----6-----6---------6-----------|-----6-9---6---------6-----------|
F||---------------------------------|---------------------------------|
C||---------------------------------|---------------------------------|

    E   S E   S E   E   E   E   S S   E   S E   S E   E   E   E   E
C||-------------------------13-11-9~|---------------------------------|
G||-11----0-------------------------|---------------------------------|
D#|-10----13~---11--10--------------|-10----------11--10--------------|
A#|-------------------------11------|-------9-----------------11------|
F||-----11----11--------11------11--|-----11----11--------11------11--|
C||---------------------------------|---------------------------------|

    S E   E   S E   E   S S E   E     S E   E   S S S E.    E.    E
C||-7~----------7~------6---7---9---|-6-------------------------------|
G||-0---------------------0---------|-------7-----9-7~----------------|
D#|-----------------------------9---|-8---------------------6-----8---|
A#|-----------------6---------------|-----------6-----8---------------|
F||-----------7---------------------|---6---9-------------------------|
C||---7---9-------------------------|---------------------------------|

    S E   E   S E   E   S S E   E     E   E.    E.    Q       Q       x3 W
C||-5~----------5~------4---5---7---|-4---4-----4-----4---------------||-2-
G||-3---------------0-----2---------|---------------------------------||-4-
D#|-----------2-----------------7---|-6---6-----6-----6-------3~-----*||-4-
A#|---0---4-------------------------|--------------------------------*||-4-
F||---------------------------------|---------------------------------||-2-
C||---------------------------------|---------------------------------||---

        
Comments

No comments yet