Gametabs
Home
Tabs
Random

Stone Man

Average rating: No ratings

Composer:

Tabber:

Style:

Instrument:

Created: June 21, 2009 at 12:00 AM

            Megaman V - Stone Man

Compsed by: Mari Yamaguchi
Tabbed by: Brainsick Fungus
5/25/09



e-11-11-11---8-8-8---9-9-9-9-9-9--11--------------------------------------------
B-------------------------------------------------------------------------------
G-------------------------------------------------------------------------------
D-------------------------------------------------------------------------------
A-------------------------------------------------------------------------------
E-------------------------------------------------------------------------------

e-------2-4-2-1---2--1---1--2-4-2-1------------1--------------------------------
B-4-2-4---------2------2------------4--1-4-1-3----------------------------------
G-------------------------------------------------------------------------------
D-------------------------------------------------------------------------------
A-------------------------------------------------------------------------------
E-------------------------------------------------------------------------------

e-------2-4-2-1---2--1---1--2-4-2-6--9-8-6---6---8-11-10------------------------
B-4-2-4---------2------2-------------------9---9--------------------------------
G-------------------------------------------------------------------------------
D-------------------------------------------------------------------------------
A-------------------------------------------------------------------------------
E-------------------------------------------------------------------------------

e-2-2-1-2-1-2--2-1-2-4-6-3-----------------------0-2-4--0-2-4-2--4-6------------
B--------------------------4----4-4-2-4-2-4----0--------------------------------
G----------------------------3---------------1----------------------------------
D-------------------------------------------------------------------------------
A-------------------------------------------------------------------------------
E-------------------------------------------------------------------------------

e-2-2-1-2-1-2--2-1-2-4-6--2----------0-2-4--0-2-4-2-----------------------------
B---------------------------2------0--------------------------------------------
G-----------------------------3--1----------------------------------------------
D-------------------------------------------------------------------------------
A-------------------------------------------------------------------------------
E-------------------------------------------------------------------------------

e---6---9-9---9---9-9-13-11--7-6-4-6-7------------------------------------------
B-9---7-----7---7---------------------------------------------------------------
G-------------------------------------------------------------------------------
D-------------------------------------------------------------------------------
A-------------------------------------------------------------------------------
E-------------------------------------------------------------------------------

e-11-11---11---11-11-14-13----------------10------------------------------------
B-------9----9--------------12-11-9---------------------------------------------
G-----------------------------------11-10---------------------------------------
D-------------------------------------------------------------------------------
A-------------------------------------------------------------------------------
E-------------------------------------------------------------------------------

        
Comments

No comments yet