Gametabs
Home
Tabs
Random

Stone Man

Average rating: 2.000

1 ratings

Composer:

Tabber:

Style:

Instrument:

Created: April 27, 2015 at 12:00 AM

            Stone Man
Mega Man 5
Mari Yamaguchi
ltm_1988
4/3/2015

    E.    E   S S S S S S S S S S S   E.    E   S S S S S S S S S S S   E.    E   E   S E   S E   E   S
E||-----------11------------8-7-6---|-----------8-------------5-4-3-1-|---------------------------------|
B||-------------9---------9-------9-|-------------10--------6---------|-2-----2---2---2-2---------4---4-|
G||-8-----8-------8-----8-----------|---------------10----------------|-1-----1---1---1-1-----1---------|
D||-10----10--------10--------------|-10----10--------7---7-----------|---------------------4-----------|
A||-------------------11------------|-12----12----------8-------------|---------------------------1---1-|
D||---------------------------------|---------------------------------|---------------------------------|

    E   E   S E   S E   E   S S S S   E   S E   S S S E   S E   S S S
E||---------------------------------|---------------------------------|
B||---------------------------------|---------------------------------|
G||*--------------------1-----------|-----------------------------1---|
D||*----1-----1---4---------4-3---4-|-----3-----------3~--------4---4-|
A||---------4-----4-----4-------4---|-4-----4---4---2-4---2-----2---4-|
D||-1---------1-----1---------1-----|-----------4-6---------3---------|

    S S S E   S S S E.    E   E   S   E.    E.    E   E   S S S E   S
E||---------------------------------|---------------------------------|
B||---------------------------------|---------------------------------|
G||---------------------------------|---------------------------------|
D||---3-1~--------------------------|-----------------1-------0-3-----|
A||-2-----2-----2-2-2-----2---3---3-|-1-----1-----3---1---3-----3---1-|
D||-----------4---------------------|-----------------------1---------|

    E   E   S E   S E   E   S S S S   E   S E   S S S E   S E   S S S
E||---------------------------------|---------------------------------|
B||---------------------------------|---------------------------------|
G||---------------------1-----------|-----------------------------1---|
D||-----1-----1---4---------4-3---4-|-----3-----------3~--------4---4-|
A||---------4-----4-----4-------4---|-4-----4---4---2-4---2-----2---4-|
D||-1---------1-----1---------1-----|-----------4-6---------3---------|

    E.    E   S S S E   S S S S S S   E.    S S E   S E.    S S E   S
E||---------------------------------|---------8-------11------10------|
B||-------------2-------------------|-9-------------------------------|
G||-3~--------------5---3-----------|-----------------------8---7-----|
D||-------------------------6---8~--|---------------------------------|
A||---------------------------6-----|-----------8---------------------|
D||-4-----4---2---4-6-----6-------6-|-8-----8-------8-8-------------8-|

    S S S E   E   S Q       S S S S   E.    S S E   S Q       E.    S
E||---------------------------------|---------------------------------|
B||---------------------------------|---------------------------------|
G||---------------------------------|-3-------0-----------------------|
D||-4-4-3-4---3-----4-------4-3-4-6-|-----------------1---------------|
A||-2-2-1-2---2---2-2-------4-------|-------------------------1~----1~|
D||---------------------------1-4-6-|-1-----1---1---1-1-------1-------|

    S S S E   E.    Q       S S S S   Q       S S S S E.    E   E   S
E||---------------------------------|---------------------------------|
B||---------------------------------|---------------------------------|
G||---------------------------------|-1-----------1-------------1---3-|
D||-1-1---1---------------------2-4-|---------2-4---4~----------------|
A||-----4-----4-----6~--------2-----|---------------------------------|
D||-4-4-3-4---3-----4~------6-------|-2---------------4-----4---4---4-|

    S S S E   E   S Q       S S S S   E.    E   S S S Q       Q      
E||---------------------------------|---------------------------------|
B||---------------------------------|---------------------------------|
G||---------------------------------|-3~------------------------------|
D||-4-4-3-4---3-----4-------4-3-4-6-|-------------4-------------------|
A||-2-2-1-2---2---2-2-------4-------|-----------------4-------1~------|
D||---------------------------1-4-6-|-4-----4---4---4-4-------4-------|

    S E   E   E.    Q       S S S S   S S S E   E   S Q       S S S S
E||---------------------------------|---------------------------------|
B||---------------------------------|---------------------------------|
G||-----------------1~----------1---|---------------------------1-3---|
D||-------2---4-------------2-4---4~|-------------------------------4-|
A||---2-------------2~--------------|-----4---------4-----------------|
D||-6-2-----------------------------|-4-4---4---4-----4-------4-----4-|

    S S S E   E   E   E   S E   S S   E   S S S E   S S E   S E   S S
E||-----------------------1---------|---------------------------------|
B||-------------------------4~------|---------------------------------|
G||-6-6---6-------6---6-------------|-4-------3-------1-----3-----4---|
D||-----4-----4---------------------|---------------------------------|
A||---------------------------------|-----------3-----------------3---|
D||-6---6-6---3---6---6---3-6---6-6-|-3---3-3-------3---3-----3-----3-|

    S S S E   E   E   E   S E   S S   E   Q       E   E   E   S E.    x3 W
E||-----------------------2-1~------|---------------------------------||-2-
B||-4-4---4-------4---4-------------|---------------------------3~----||-4-
G||-----1-----1---------------------|-----4~------3---1---------4~---*||-3-
D||---------------------------------|-----6~------5---3---4---3------*||-1-
A||-1---1-1-------1---1-----1-------|---------------------6---5-------||---
D||-----------3-----------3-----3-3-|---------------------------------||---

        
Comments

No comments yet