Gametabs
Home
Tabs
Random

Star Man

Average rating: No ratings

Composer:

Tabber:

Style:

Instrument:

Created: December 06, 2010 at 12:00 AM

            Star Man
By Mari Yamaguchi
Megaman 5
Tabbed by Brainsick Fungus
5/25/09


e-----------------------9-------5----3--------9-------5----7--|
B-7--7-8--8-7--7-8--8-7----7-8----7----3-2--7----7-8----7-----|
G-------------------------------------------------------------|
D-------------------------------------------------------------|
A-------------------------------------------------------------|
E-------------------------------------------------------------|

e-5--0-----2-5-3-----------0----------------------------------|
B------2-3-------------0-1------------------------------------|
G------------------2-2----------------------------------------|
D-------------------------------------------------------------|
A-------------------------------------------------------------|
E-------------------------------------------------------------|
                                                  Trill
e-------------------------------------------------12(14)------|
B-------------10----------12-11-10-11-14-13-12-13-------------|
G-12-11-10-11----13-12-13-------------------------------------|
D-------------------------------------------------------------|
A-------------------------------------------------------------|
E-------------------------------------------------------------|

e-3--1--3--1--6-4-3---4-3-------------------------------------|
B-------------------6-----6-4-6-4-----------------------------|
G-------------------------------------------------------------|
D-------------------------------------------------------------|
A-------------------------------------------------------------|
E-------------------------------------------------------------|

e-3--1--3--1--6-4-3----3-4-6-4-3---3-4-5----0-----------------|
B-------------------6------------6----------------------------|
G-----------------------------------------2---12--------------|
D-------------------------------------------------------------|
A-------------------------------------------------------------|
E-------------------------------------------------------------|

e-17-16-15-14-------------------------------------------------|
B-------------18-17-16-15-------------------------------------|
G-------------------------18-17-16-15-------------------------|
D-------------------------------------------------------------|
A-------------------------------------------------------------|
E-------------------------------------------------------------|


        
Comments

No comments yet