Gametabs
Home
Tabs
Random

Stage Select

Average rating: 4.000

3 ratings

Composer:

Tabber:

Style:

Instrument:

Created: July 18, 2011 at 12:00 AM

            Mega Man 5 - Stage Select
Platform: NES Nintendo Entertainment System
Developer/Publisher: Capcom
Composed by: Mari Yamaguchi

Electric Guitar Tab Created By: soundsandstuff channel www.youtube.com/user/soundsandstuff
Completed on: 7/17/11

Standard Tuning

E|---------------------------------------|-------------------------------------|-----------------------15L---|
B|-----13--------------16-----15---------|-13------------13--16-----15---------|-13--------------13----------|
G|--------------15-------------------15--|--------15-----------------------15--|--------15-------------------|
D|-15-----15-----------------------------|-----15-----15-----------------------|-----15----------------------|
A|---------------------------------------|-------------------------------------|--------------15-------------|
E|---------------------------------------|-------------------------------------|-----------------------------|


E|-15----------------------------------|
B|-----13------16--14--13--------------|
G|------------------------15----12-----|
D|-------------------------------------|
A|-------------------------------------|
E|-------------------------------------| Repeat from the beginning




Notes:

L - tied note


Thank you for playing!


        
Comments

@auriplane (July 21, 2011 at 1:39 PM)

Wow, this is rated 2 stars, even though it has all the notes exactly correct. That's weird. The only thing I'd personally do differently from this tab is move some of the notes up a string, like this:

E|---------------------11-----10---------|-------------------11-----10---------|-----------------------15L---|
B|-----13-------11-------------------11--|-13-----11-----13----------------11--|-13-----11-------13----------|
G|-10-----10-----------------------------|-----10-----10-----------------------|-----10----------------------|
D|---------------------------------------|-------------------------------------|--------------10-------------|
A|---------------------------------------|-------------------------------------|-----------------------------|
E|---------------------------------------|-------------------------------------|-----------------------------|

E|-15----------11----------------------|
B|-----13----------14--13-11-----------|
G|------------------------------12-----|
D|-------------------------------------|
A|-------------------------------------|
E|-------------------------------------| Repeat from the beginning

@soundsandstuff (July 21, 2011 at 11:28 PM)

i tried your method of finger positioning and it is more comfortable than my version, only thing is that i have a bit of trouble transitioning smoothly in the third measure (from 4th string 10th fret up to 1st string 15th fret) but that's probably due to my pinky being so stubby. and i'm out of practice x). thanks for your input and the rating, i really appreciate it! :Ô:!!

and does this happen to anyone else? that i have the "notify me when comments are posted" box checked but for tabs pages i don't get any emails telling me when i get them, i just find out when i look at the actual tab page x/ they dont go to spam folder either xO