Gametabs
Home
Tabs
Random

Napalm Man

Average rating: No ratings

Composer:

Tabber:

Style:

Instrument:

Created: May 25, 2015 at 12:00 AM

            Napalm Man
Mega Man 5
Mari Yamaguchi
ltm_1988
5/7/2015

    E   E   E   E   E     E   E   E   E   E   E     E   E   E   E     E   E   E   E   E   E   
E||-----------------4---|-------------2---1-------|-----------------|-4-----------2---1-------|
B||---------2---4-------|---------0-----------2---|---------2---4---|---------0-----------2---|
G||-----1-----------1---|-------------------------|-----1-----------|-1-----------------------|
D||-------------1-------|-----4-------4---3-------|-------------1---|-----4-------4---3-------|
A||---------4-----------|---------2-----------4---|---------4-------|---------2-----------4---|
E||-4---4---------------|-2---2-------------------|-4---4-----------|-----2-------------------|

                                                       |-3-|   |-3-|  
    E   E   Q       E   E   E.    S   Q       Q        Q   E   E Q   
E||---------------------------------|-3~------------------------------|
B||---------------------0---------5~|---------------------------------|
G||---------1-----------------------|---------------------------------|
D||---------------------------------|---------------------------------|
A||---------------------------------|---------------------------------|
E||-0---0---0-------0-------0-------|-0-------0------------2-----2----|

    E   E   E   Q       E   E   E     E   E   E   E   E   E   E   E  
E||---------------------------------|---------------------------------|
B||---------------------------------|---------------------2---4-------|
G||*--------1~----------3-------1---|-----3-------4-------------------|
D||*------------------------4-------|---------1-------1~----------4---|
A||-2~------------------------------|-------------------------1---2---|
E||-4---4-------4-------2-------4~--|-----4~------4~------4-----------|

    E   Q       Q       E   E   E     E   E   E   E   E   E   E   E  
E||-2~------------------4---2---1~--|---------------------------------|
B||---------------------------------|---------------------------------|
G||---------------------------------|---------------------------------|
D||---------------------------------|-----------------------------1---|
A||-4---4-------4-------2-------4---|-4---4-------4---2---1---4---4---|
E||-4~------------------------------|---------4---4-----------4-------|

    E   E   E   Q       Q       E     E   Q       Q       E   E   E  
E||-----0---------------------------|---------------------------------|
B||---------4---0-------2-------4---|-2-------------------------------|
G||---------------------------------|-----3---------------1---3-------|
D||---------------------------------|-1-----------4---------------1---|
A||---------------------------------|-1-------------------------------|
E||-0---0-------4~--------------0---|-------------2~------------------|

    Q       E   E   Q       E   E     E   E   E   Q       E   Q      
E||---------------------------------|---------------------------------|
B||---------------------------------|---------------------------------|
G||-1~------------------------------|-----0-------0-------1---3~------|
D||---------------------------------|-1-------3-----------1---1-------|
A||-4-----------------------4-------|---------------------------------|
E||---------1---1---4-----------1---|---------------------------------|

    E   E   E   Q       E   E   E     E   E   E   E   E   E   E   E  
E||---------------------------------|---------------------------------|
B||---------------------------------|---------------------2---4-------|
G||---------1~----------3-------1---|-----3-------4-------------------|
D||-------------------------4-------|---------1-------1~----------4---|
A||-2~------------------------------|-------------------------1---2---|
E||-4---4-------4-------2-------4~--|-----4~------4~------4-----------|

    E   Q       Q       E   E   E     E   E   E   E   E   E   E   E  
E||-2~------------------4---2---1~--|---------------------------------|
B||---------------------------------|---------------------------------|
G||---------------------------------|---------------------------------|
D||---------------------------------|-----------------------------1---|
A||-4---4-------4-------2-------4---|-4---4-------4---2---1---4---4---|
E||-4~------------------------------|---------4---4-----------4-------|

    E   E   E   Q       Q       E     E   Q       Q       E   E   E  
E||-----0---------------------------|---------------------------------|
B||---------4---0-------2-------4---|-2-------------------------------|
G||---------------------------------|-----3---------------1---3-------|
D||---------------------------------|-1-----------4---------------1---|
A||---------------------------------|-1-------------------------------|
E||-0---0-------4~--------------0---|-------------2~------------------|

    E   E   E   E   E     E   E   E   E   E   E     E   E   E   E     E   E   E   E   E   E   
E||---------------------|-------------------------|-4~--------------|-------------------------|
B||---------------------|-------------------------|-----------------|-------------------------|
G||-1~--------------1~--|-------------------------|-----------------|-1-----------------------|
D||-------------1-------|-------------4---3-------|-------------1---|-------------4---3-------|
A||---------4-----------|---------2-----------4---|---------4-------|---------2-----------4---|
E||-4---4---------------|-2---2-------------------|-0---4-----------|-2---2-------------------|

    E   E   E   Q       E   E   E     E   E   E   Q       E   E   E  
E||---------------------------------|---------------------------------|
B||---------------------------------|---------------------------------|
G||---------------------------------|---------------------------------|
D||-2~----------1-------2---1-------|-------------4-------2---1---2~--|
A||-----2-------1-------4-------4~--|-------------4---------------1---|
E||-4-------0---2-----------2---6---|-----2---6---2-------2---4---2---|

    E   E   E   Q       E   E   E     E   E   E   Q       E   E   E  
E||---------------------------------|---------------------------------|
B||---------------------------------|---------------------------------|
G||---------------------------------|---------------------------------|
D||-------------1-------2---1-------|---------------------2---4---5~--|
A||-----2-------1-------4-------4~--|-------------4---------------0---|
E||-4-------0---2-----------2---6---|-----2---6---2-------2---5-------|

    E   E   E   Q       E   E   E     E   E   E   E   E   E   E   E  
E||---------------------------------|---------------------------------|
B||---------------------------------|-------------0-------------------|
G||---------------------0-----------|-----------------2---0-------0---|
D||-------------4-----------4---2~--|-------------0-------0---4---0---|
A||-----3-------5-------0---3---5---|-0---3-------------------0-------|
E||---------0-----------------------|---------0-----------3-------3---|

    E   E   E   Q       E   E   E     E   E   E   E   E   E   E   E  
E||---------------------------------|---------------------------------|
B||---------------------------------|---------------------------------|
G||-------------0-------------------|-----------------------------2---|
D||-5~------------------4-------2---|-1~--1~----------1---2---4-------|
A||-0---3-------1-------4---1---4---|-2-----------0-------2---6---0---|
E||---------0---------------0-------|---------2-----------------------|

    E   E   E   Q       E   E   E     E   E   E   Q       E   E   E  
E||---------------------------------|---------------------------------|
B||---------------------------------|---------------------0-------2---|
G||-1~----------1---------------1---|-3~----------3-------------------|
D||---------2-----------4-----------|---------4-------------------4---|
A||-----2---------------1-------2---|-----4-------1-------4-------4---|
E||-0-----------4-----------0-------|-0-----------0-----------0-------|

    E   E   E   Q       E   E   E     Q       E   Q       E   E   E  
E||---------------------------------|---------------------------------|
B||-4~----------4-------2-------0---|---------------------------------|
G||-----0---3-----------1-----------|-3-----------1-----------0-------|
D||---------------------------------|-5-----------3-------1---1---1---|
A||-------------------------1-------|---------1-----------1---1-------|
E||-3-----------4-------------------|---------------------------------|

    E   E   E   Q       E   E   E     E   E   E   Q       E   E   E  
E||---------------------------------|---------------------------------|
B||---------------------------------|---------------------0-------2---|
G||-1~----------1---------------1---|-3~----------3-------------------|
D||---------2-----------4-----------|---------4-------------------4---|
A||-----2---------------1-------2---|-----4-------1-------4-------4---|
E||-0-----------4-----------0-------|-0-----------0-----------0-------|

    E   E   E   E   E     E   E   E   E   E   E     E   E   E   E    
E||---------------------|-------------------------|-----------------|
B||-4~--------------4~--|-------------4~--2-------|-----------------|
G||---------1---3-------|---------1-----------3---|---------1---3---|
D||-1---1---------------|-----1-------------------|-----1-----------|
A||---------------------|-4---4-------------------|-2---2-----------|
E||---------------------|-------------------------|-----------------|

    E   E   E   E   E   E     E   E   E   E   x3 W
E||-------------------------|-----------------||-4-
B||-4~----------4~--2-------|---------2---4~--||-4-
G||---------2-----------2---|-----2----------*||-4-
D||-----1-------------------|-1--------------*||-6-
A||-0---0-------0-------0---|-----0---0-------||-6-
E||-------------------------|-----------------||-4-

        
Comments

No comments yet