Gametabs
Home
Tabs
Random

Top Man

Average rating: No ratings

Composer:

Tabber:

Style:

Instrument:

Created: February 19, 2010 at 12:00 AM

            Top Man
By Yasuaki Fujita (Bun Bun)
Mega Man 3
Tabbed by Brainsick Fungus
02/13/10

**Warning: Non-Standard Tuning**
(Tighten the second string so that it plays one fret higher)


e-1-0---3--1-0---3--4-5------1-0---3--1-0---3--4-5-1-2-----------|
C-----2--------2--------2-0------2--------2----------------------|
G----------------------------------------------------------------|
D----------------------------------------------------------------|
A----------------------------------------------------------------|
E----------------------------------------------------------------|

e-----5---3---1-------1---3---1------5---3---1-------1---3---1---|
C-2-2---2---2---2-0-2---2---2---2--2---2---2---2-0-2---2---2---0-|
G----------------------------------------------------------------|
D----------------------------------------------------------------|
A----------------------------------------------------------------|
E----------------------------------------------------------------|

e----------------------------------------------------------------|
C-0-7-0-5-0-4-0---0-4-0-5-0-4-0--0-7-0-5-0-4-0-0-1-2-5-4-2-------|
G---------------3------------------------------------------------|
D----------------------------------------------------------------|
A----------------------------------------------------------------|
E----------------------------------------------------------------|

e---5---3---1------5---3---1-------------------------------------|
C-2---2---2---2--2---2---2---2-----------------------------------|
G----------------------------------------------------------------|
D----------------------------------------------------------------|
A----------------------------------------------------------------|
E----------------------------------------------------------------|

e----------8--7--------7-5--3--3-1-------3--3-1------------------|
C-2--4--5--------7--7---------------2--2-------------------------|
G----------------------------------------------------------------|
D----------------------------------------------------------------|
A----------------------------------------------------------------|
E----------------------------------------------------------------|

e-----------8--10--8--7----5--3--3-1-------3--3-1----------------|
C--2--4--5---------------7------------2--2-----------------------|
G----------------------------------------------------------------|
D----------------------------------------------------------------|
A----------------------------------------------------------------|
E----------------------------------------------------------------|

e----------8--7--------7-5--3--3-1-------3--3-1------------------|
C-2--4--5--------7--7---------------2--2-------------------------|
G----------------------------------------------------------------|
D----------------------------------------------------------------|
A----------------------------------------------------------------|
E----------------------------------------------------------------|

e-----------8--10--8--7----5--3--3-1-------3--3------------------|
C--2--4--5---------------7------------2--2------1-0--------------|
G----------------------------------------------------------------|
D----------------------------------------------------------------|
A----------------------------------------------------------------|
E----------------------------------------------------------------|

e----------------------------------------------------------------|
C-5-5-4--5-5-4---------5-5-4--5-5-4------------------------------|
G---------------5-4-2--------------------------------------------|
D----------------------------------------------------------------|
A----------------------------------------------------------------|
E----------------------------------------------------------------|

e----------------------------------------------------------------|
C------------------------------------------------0-1-------------|
G-2-1-0--------------------------------------3-4-----------------|
D-------0-0----0-3----0-3----0-3-0-0----0-3----------------------|
A------------3------3------3----------3--------------------------|
E----------------------------------------------------------------|





        
Comments

No comments yet