Gametabs
Home
Tabs
Random

Top Man

Average rating: 5.000

1 ratings

Composer:

Tabber:

Style:

Instrument:

Created: March 06, 2015 at 12:00 AM

            Mega Man 3
Top Man Stage

Rhythm not represented here. Listen to the song and follow along.

Guitar 1

|-13-12----15-13-12----15-16-17-------|-13-12----15-13-12----15-16-17-13-14-|
|-------15----------15----------15-13-|-------15----------15----------------|
|-------------------------------------|-------------------------------------|
|-------------------------------------|-------------------------------------|
|-------------------------------------|-------------------------------------|
|-------------------------------------|-------------------------------------|


|-------17----15----13----------13----15----13-|
|-15-15----15----15----15-13-15----15----15----|
|----------------------------------------------|
|----------------------------------------------|
|----------------------------------------------|
|----------------------------------------------|


|-------17----15----13----------13----15----13-|
|-15-15----15----15----15-13-15----15----15----|
|----------------------------------------------|
|----------------------------------------------|
|----------------------------------------------|
|----------------------------------------------|


|-------15----13----12-------12----13----12-------15----13----12-|
|-13-13----13----13----13-13----13----13----13-13----13----13----|
|----------------------------------------------------------------|
|----------------------------------------------------------------|
|----------------------------------------------------------------|
|----------------------------------------------------------------|


|-------------13-12-------17----15----13-------17----15----13----|
|-13-13-14-15-------15-15----15----15----15-15----15----15----15-|
|----------------------------------------------------------------|
|----------------------------------------------------------------|
|----------------------------------------------------------------|
|----------------------------------------------------------------|


|----12-13-20-19-15-15-19p17p15h17-|----12-13-20-22-20-19-15h17p15h17-|
|-15-------------------------------|-15-------------------------------|
|----------------------------------|----------------------------------|
|----------------------------------|----------------------------------|
|----------------------------------|----------------------------------|
|----------------------------------|----------------------------------|


|----12-13-20-19-15-15-19p17p15h17-|----12-13-20-22-20-19-15h17p15h17-|
|-15-------------------------------|-15-------------------------------|
|----------------------------------|----------------------------------|
|----------------------------------|----------------------------------|
|----------------------------------|----------------------------------|
|----------------------------------|----------------------------------|


|-13-13-12-13-13-12-|-13-13-12-13-13-12-|
|-------------------|-------------------|
|-------------------|-------------------|
|-------------------|-------------------|
|-------------------|-------------------|
|-------------------|-------------------|


|-------------13-------13-------13-------------13------------|
|-15-15-13-15----13-15----13-15----15-15-13-15------12-13-14-|
|------------------------------------------------15----------|
|------------------------------------------------------------|
|------------------------------------------------------------|
|------------------------------------------------------------|






Guitar 2

|-----------------------------------|-----------------------------------|
|-----------------------------------|-----------------------------------|
|-10-9----12-10-9----12-13-14-------|-10-9----12-10-9----12-13-14-10-11-|
|------12---------12----------12-10-|------12---------12----------------|
|-----------------------------------|-----------------------------------|
|-----------------------------------|-----------------------------------|


|----------------------------------------------|
|-------15----13----------------13----15----13-|
|-14-14----14----14-15-14-12-14----14----14----|
|----------------------------------------------|
|----------------------------------------------|
|----------------------------------------------|


|----------------------------------------------|
|-------15----13----------------13----15----13-|
|-14-14----14----14-15-14-12-14----14----14----|
|----------------------------------------------|
|----------------------------------------------|
|----------------------------------------------|


|----------------------------------------------|
|-------13-------------------------------------|
|-12-12----12-15-12-14-12----12-14-12-15-12-14-|
|-------------------------15-------------------|
|----------------------------------------------|
|----------------------------------------------|


|---------------------------------------|
|-------13------------------------------|
|-12-12----12-15-12-14-12----------10-9-|
|-------------------------10-11-12------|
|---------------------------------------|
|---------------------------------------|


|----------------------|----------------------|
|----------------------|----------------------|
|-------14----12-------|-------14----12-------|
|-12-12----12----12-15-|-12-12----12----12-15-|
|----------------------|----------------------|
|----------------------|----------------------|


|----------------------|----------------------------------|
|----------------------|----------------------------------|
|-------14----12-------|----------14----12----------------|
|-12-12----12----12-15-| -12-12-12---12----12-15-12-12-12-|
|----------------------|----------------------------------|
|----------------------|----------------------------------|


|-15-15p13-------15-15p13-|
|----------15-15----------|
|-------------------------|
|-------------------------|
|-------------------------|
|-------------------------|


|----------------------|----------------------------------|
|----------------------|----------------------------------|
|-------14----12-------|----------14----12----------------|
|-12-12----12----12-15-| -12-12-12---12----12-15-12-12-12-|
|----------------------|----------------------------------|
|----------------------|----------------------------------|


|-15-15p13-------15-15p13-|
|----------15-15----------|
|-------------------------|
|-------------------------|
|-------------------------|
|-------------------------|


|----------------------|----------------------------------|
|----------------------|----------------------------------|
|-------14----12-------|----------14----12----------------|
|-12-12----12----12-15-| -12-12-12---12----12-15-12-12-12-|
|----------------------|----------------------------------|
|----------------------|----------------------------------|


|-15-15p13-------15-15p13-|
|----------15-15----------|
|-------------------------|
|-------------------------|
|-------------------------|
|-------------------------|


|----------------------|----------------------------------|
|----------------------|----------------------------------|
|-------14----12-------|----------14----12----------------|
|-12-12----12----12-15-| -12-12-12---12----12-15-12-12-12-|
|----------------------|----------------------------------|
|----------------------|----------------------------------|


|-15-15p13-------15-15p13-|
|----------15-15----------|
|-------------------------|
|-------------------------|
|-------------------------|
|-------------------------|


|------------------------------------------------------------|
|-------11-11-11-11-11-11---------11-11-11-11-11-11----------|
|------------------------------------------------------------|
|-11-10-------------------10-9-------------------------------|
|------------------------------12-------------------12-11-10-|
|------------------------------------------------------------|


|------------------|-------------|
|------------10-11-|-11-12-13-14-|
|-10-9-10-12-------|-------------|
|------------------|-------------|
|------------------|-------------|
|------------------|-------------|




Bass

|----------12----------12-13-14----------------12----------12-13-14-------|
|-15-14-12----15-14-12----------12----15-14-12----15-14-12----------15-16-|
|----------------------------------15-------------------------------------|
|-------------------------------------------------------------------------|


|----|      |----|      |-------------| |----|      |-12-|
|-12-|      |-10-|      |-11-12-15-14-| |-12-|      |----|
|----|      |----|      |-------------| |----|      |----|
|----|(x32) |----|(x25) |-------------| |----|(x25) |----|(x8)


|----|      |-12-|
|-12-|      |----|
|----|      |----|
|----|(x24) |----|(x8)


|----|      |-12-|
|-12-|      |----|
|----|      |----|
|----|(x24) |----|(x8) 


|----|      |-12-|
|-12-|      |----|
|----|      |----|
|----|(x24) |----|(x8)


|----|      |---------------------| |----|      |----|     |-----------|
|-12-|      |-11-10-10-9----------| |----|      |-10-|     |-8-9-10-11-|
|----|      |------------12-12-11-| |-10-|      |----|     |-----------|
|----|(x14) |---------------------| |----|(x17) |----|(x8) |-----------|
        
Comments

No comments yet