Gametabs
Home
Tabs
Random

Shadow Man

Average rating: 5.000

1 ratings

Composer:

Tabber:

Style:

Instrument:

Created: September 01, 2014 at 12:00 AM

            Shadow Man
Mega Man 3
Yasuaki Fujita
ltm_1988
8/31/2014

    S S S S S S S E   E   E   E   S   Q       Q       Q       Q
E||-------------------2---5---7---8-|-9-------9-------9-------9-------|
B||---------3-1-2-3-----------0-----|-7-------7-------7-------7-------|
G||-2---2-4-----------------------5-|---------------------------------|
D||---4-----0-----0---4---7---------|---------------------------------|
A||-0---0-2---3-4-------------------|---------------------------------|
E||---2-----------------------------|-7-------7-------7-------7-------|

    Q       Q       H                 E   E   E   H               E   x2
E||---------------------------------|---------------------------------|
B||---------------------------------|---------------------------------|
G||*--------------------------------|--------------------------------*|
D||*--------------------------------|--------------------------------*|
A||---------0-------2---------------|-----3---2---0-------------------|
E||-2-------------------------------|---------------------------------|

    Q       Q       E   Q.            E   E   E   Q       Q.
E||---------7~------7---5~----------|-7---9-------7~------5~----------|
B||---------7-------7---7-----------|-7---7-------7-------7-----------|
G||*--------------------------------|---------------------------------|
D||*--------------------------------|---------------------------------|
A||---------0-----------------------|-------------0-------------------|
E||-2---------------7---------------|-----8---7-----------------------|

    Q       Q       E   Q.            E   E   E   H               E   x2
E||---------7~------7---5~----------|-11----------5~------------------|
B||---------7-------7---7-----------|-------------5-------------------|
G||---------------------------------|-9------------------------------*|
D||---------------------------------|--------------------------------*|
A||---------0-----------------------|-----3---2---0-------------------|
E||-2---------------7---------------|---------------------------------|

    E   E   E   Q       E   E   E     E   E   E   Q       E   Q
E||---------------------------------|---------------------------------|
B||-4---------------~---------------|---------------------------------|
G||---------------------------------|-2---------------~---------------|
D||---------------------------------|---------------------------------|
A||-2---2---2---2-------2---2---2---|-4---2---2---------------2-------|
E||-2---2---5---2-------2---5-------|-2---2---5---2-------2---~-------|

    E   E   E   Q       E   E   E     E   E   E   E   E   E   E   E
E||---------------------------------|---------------------------------|
B||-4---------------~---------------|---------------------------------|
G||-----------------------------2~--|-----------------0---------------|
D||---------------------4---3---2---|-4---------------~---4~----------|
A||-2---2---2---2-----------2-------|-0---0---7~--------------7~------|
E||-2---2---5---2-------2-----------|-------------5---------------5---|

    E   E   E   Q       E   E   E     E   E   E   E   E   E   Q
E||---------------------------------|---------------------------------|
B||-4---------------~---------------|-0-------2-------0---------------|
G||-2---2-------2-------2-------2---|-2---------------~---------------|
D||---------4---------------4-------|---------------------4-----------|
A||---------2---------------2-------|---------2---------------2-------|
E||-2---2-------2-------2-----------|-2---2-------2-------2-----------|

    E   E   E   Q       E   E   E     E   E   E   E   E   E   E   E
E||---------------------------------|---------------------------------|
B||---------------------------------|---------------------------------|
G||-4~------------------2---2~------|---------------------------------|
D||-2---2-------2-----------6---4---|-4~------------------------------|
A||---------4---------------2-------|---------0-------4---2---0-------|
E||-2---2---7---2-------2-----------|-2---2-------2---------------2---|

    E   E   E   E   E   E   E   E     E   E   E   E   E   E   Q
E||---------------------------------|-----------------0---------------|
B||---------2---------------2-------|---------2---------------1-------|
G||---------------------------------|---------------------------------|
D||-4---------------4---------------|-4-------------------------------|
A||-2---2---2---2-------2---2---2---|-4---2---2---------------2-------|
E||-2---2---5---2-------2---5-------|-2---2---5---2-------2---~-------|

    E   E   E   E   E   E   E   E     E   E   E   E   E   E   E   E
E||---------------------------------|-----------------0---------------|
B||---------2---------------2-------|---------2---------------1-------|
G||---------------------------------|-----------------0---------------|
D||-4---------------4---4---3---2---|-4-------2~--------------2~------|
A||-2---2---2---2-----------2-------|-0---0-------0-------9-------0---|
E||-2---2---5---2-------2-----------|---------------------------------|

    E   E   E   E   E   E   E   E     E   E   E   E   E   E   Q
E||---------------------------------|-----------------0---------------|
B||---------2---------------2-------|-0-------2-------0-------1-------|
G||-2---2-------2-------2-------2---|---------------------------------|
D||-4-------4-------4-------4-------|-4-------------------4-----------|
A||---------2---------------2-------|---------2---------------2-------|
E||-2---2-------2-------2-----------|-2---2-------2-------2-----------|

    E   E   E   E   E   E   E   E     E   E   E   E   E   E   E   E
E||-2-------------------------------|-----------------0---------------|
B||-------------------------2-------|---------2---------------1-------|
G||---------6-----------2---1-------|---------------------------------|
D||-2---2-------2---------------4---|-4-------~-----------------------|
A||---------4-------4-------2-------|---------0-------4---2---0-------|
E||-2---2---7---2-------2-----------|-2---2-------2---------------2---|

    S S E   E   S S E   E   S S E     E   E   E   E   Q       Q
E||-2---------------0-------2-------|---------0-------2-------7-------|
B||---------0-----------------------|-0-------0---2---~---------------|
G||---------------------------------|-----2---------------------------|
D||-------------------------2---2---|-4-------------------------------|
A||-2-------0---2-0-2---4-----4-----|-0-------------------------------|
E||-2-0-2---------------------------|---------------------------------|

    S S E   S S S S E   S S E.    S   E   E   S S S S E   S S E.    S
E||---------------------------------|---------------------------------|
B||---------0---0---0-------------2-|-----0---------------------------|
G||*1---1-------2---1-----1-------2-|-----1---2---1---------1---------|
D||*2-2-2---4-----0-------2---------|-2---2---4---2---4-----2-0-----2-|
A||---2-----2-4---------5---5-------|---------2-4---5-6---5---------4-|
E||---------------------------------|---------------------------------|

    E   E   S E   S E   E   E   E     E   E   S S E   Q       Q       x2
E||---------------------------------|---------------------------------|
B||-0-------------------------------|---------------------------------|
G||-1-------2-------1---------------|--------------------------------*|
D||---------4-------2-------4---4---|-2-------2-------2-------4------*|
A||-0---0-----0---2-----2---6---0---|-3---3---3-3-3---5-------5-------|
E||---------2---------------7-------|---------5-----------------------|repeat from start

    W
E||-4-------------------------------||
B||-5-------------------------------||
G||-4-------------------------------||
D||-6-------------------------------||
A||-7-------------------------------||
E||-0-------------------------------||

        
Comments

@Alechondo (September 14, 2014 at 5:30 AM)

That intro is nuts but this song is fun to play, I love that you're keeping bass lines intact.