Gametabs
Home
Tabs
Random

Protoman (Remix)

Average rating: 4.000

1 ratings

Composer:

Tabber:

Style:

Instrument:

Created: March 14, 2010 at 12:00 AM

            Protoman Remix
Megaman 3

Tabbed by Aj Franks
03/08/2010


e||------------------------------------------------------||-----------|
B||------------------------------------------------------||-----------|
G||*------10-12-----10-14(p12)-----10-13--12--10--------*||--10--12---|
D||*--12------------------------12---------------10-12--*||-----------|
A||------------------------------------------------------||-----------|
E||------------------------------------------------------||-----------|


e||----------------------------------------------------------------|
B||----------------------------------------------------------------|
G||*--14---------14-12---------------------------------------------|
D||*-------12-15--------15--14-15---12-12--14-14--15---14--12-14---|
A||----------------------------------------------------------------|
E||----------------------------------------------------------------|


e|----------------------------------------------------||--------//18---|
B|----------------------------------------------------||--//15---------|
G|---14---------14-12--------------14-14--12-12-14---*||---------------|
D|--------12-15--------15--14-15---------------------*||---------------|
A|----------------------------------------------------||---------------|
E|----------------------------------------------------||---------------|



e|--------------|
B|--------------|
G|--------------|
D|-----3--2--0--|
A|--3-----------|
E|--------------|


e|--------------------------------------------------------------------------------------------------|
B|-------------------13-11-10--11-13-10-------------------11-13--8----------------------------------|
G|-----10-12-13--12----------------------10-10--10-12-13-----------8-8-----8-10--10-12-10-9---------|
D|--12------------------------------------------------------------------10-------------------11-----|
A|----------------------------------------------------------------------------------------------12--|
E|--------------------------------------------------------------------------------------------------|


e|-----------------------------------10-----------------------------------------------|
B|-------------------13-11-10--11-13------11------------------------------------------|
G|-----10-12-13--12--------------------------12-----9-10--10-12-10-9----------9-------|
D|--12-------------------------------------------12-------------------12--10-----12---|
A|------------------------------------------------------------------------------------|
E|------------------------------------------------------------------------------------|


e||-------------------------------------------------------------||
B||---10-11-13--13-13--13-13-13-13--11-10-----------------------||
G||*--------------------------------------12--9--10-9----------*||
D||*---------------------------------------------------12-10---*||
A||-------------------------------------------------------------||
E||-------------------------------------------------------------||


e|-----------------------------------------------------------------------------------------------------|
B|--13-14-16--16-16--16-16-16-16--14-13-11---------------------------------/16-14-13-11--11h13p11-10---|
G|------------------------------------------12--13-12------------12-13---------------------------------|
D|-----------------------------------------------------13-15--15-------13------------------------------|
A|-----------------------------------------------------------------------------------------------------|
E|-----------------------------------------------------------------------------------------------------|


e|-----------------------------------10-----------------------------------------------|
B|-------------------13-11-10--11-13------11------------------------------------------|
G|-----10-12-13--12--------------------------12-----9-10--10-12-10-9----------9-------|
D|--12-------------------------------------------12-------------------12--10-----12---|
A|------------------------------------------------------------------------------------|
E|------------------------------------------------------------------------------------|


e|----------------|
B|--10-10--8--10--|
G|----------------|
D|----------------|
A|----------------|
E|----------------|


e|----------------------------------------------------------------|
B|----/11-10-11----/11-10-11----/11-10-13--11-11-10--8-8----8-10--|
G|--7/-----------7/-----------7/-------------------------10-------|
D|----------------------------------------------------------------|
A|----------------------------------------------------------------|
E|----------------------------------------------------------------|


e|----------------------------------------------------------------|
B|----/11-10-11----/11-10-11----/11-10-13--11-11-10--8-8-10--6----|
G|--7/-----------7/-----------7/-------------------------------7--|
D|----------------------------------------------------------------|
A|----------------------------------------------------------------|
E|----------------------------------------------------------------|


e|-----------------------------------------|
B|-----------------------------------------|
G|----------------------7-9-/12--10--9-10--|
D|--8-8-7-7--8-8-7-7--8--------------------|
A|-----------------------------------------|
E|-----------------------------------------|


e|--------------------------------------------------------------------|
B|--------------------------------------------------------------------|
G|--10-12-14--10-10-12-14-12-14-15--12--9--9--------------------------|
D|--------------------------------------------10--10--7--8--10--(12)--|
A|--------------------------------------------------------------------|
E|--------------------------------------------------------------------|


e|--------------------------------------------------------------------------------------------------|
B|-------------------13-11-10--11-13-10-------------------11-13--8----------------------------------|
G|-----10-12-13--12----------------------10-10--10-12-13-----------8-8-----8-10--10-12-10-9---------|
D|--12------------------------------------------------------------------10-------------------11-----|
A|----------------------------------------------------------------------------------------------12--|
E|--------------------------------------------------------------------------------------------------|


e|-----------------------------------10-----------------------------------------------|
B|-------------------13-11-10--11-13------11------------------------------------------|
G|-----10-12-13--12--------------------------12-----9-10--10-12-10-9----------9-------|
D|--12-------------------------------------------12-------------------12--10-----12---|
A|------------------------------------------------------------------------------------|
E|------------------------------------------------------------------------------------|

        
Comments

No comments yet