Gametabs
Home
Tabs
Random

Magnet Man

Average rating: 5.000

1 ratings

Composer:

Tabber:

Style:

Instrument:

Created: November 04, 2011 at 12:00 AM

            Mega Man 3 - Magnet Man
Composed by Yasuaki Fujita
Tabbed by StiGGe

Part A


E|----------------------------------------------------------------------------------------|
B|----------------------------------------------------------------------10----------------|
G|-------9-9-11------------------------------------------------------11----11-10-11-11-11-|
D|-11-11---------9-8-9-11---9-8-9-11---9-8-9-11---9-8-9-11---8-9-11-----------------------|
A|----------------------------------------------------------------------------------------|
E|----------------------------------------------------------------------------------------|

Part B


E|--------------------------------------------------------------------------------|
B|------------------------------9-------------------------------------------------|
G|---10-11------------------------11-10-------------------------9-11-9------------|
D|-8---------8-12-11-11-9-9-9-----------11-9-8-8-8-9-11---12-12--------12-11-8----|
A|-----------------------------------------------------------------------------9--|
E|--------------------------------------------------------------------------------|


E|-----------------------|
B|---------------------9-|
G|-----8-11-10-8-10-11---|
D|-9-11------------------|
A|-----------------------|
E|-----------------------|

Part C

E|-------------------------------------------------9-----------------------------------|
B|---------------------------------9-9----11---------12-11-9--------12-12-11-9---------|
G|-11-11-11-11-10-----9-9-9-9-8--------11----8-11------------11-11-------------11-11---|
D|----------------11------------9------------------------------------------------------|
A|-------------------------------------------------------------------------------------|
E|-------------------------------------------------------------------------------------|


E|------------------9-9-------------------------------9-------------9-------|
B|-11-11-12-12----------12-11-9----9----9-11---9--------10----10-12---12----|
G|-------------8-8--------------11---11----------11--------11---------------|
D|--------------------------------------------------------------------------|
A|--------------------------------------------------------------------------|
E|--------------------------------------------------------------------------|

E|-------9-------------9------------------------------------------|
B|-10-12---10----10-12---12---------------------------------------|
G|------------11---------------9-11-9-----------------------------|
D|--------------------------11--------11-9-11--11-11--11--11-11---|
A|----------------------------------------------------------------|
E|----------------------------------------------------------------|

        
Comments

@auriplane (November 05, 2011 at 2:01 AM)

I think you accidentally put part of Part B on the wrong string (the 8-12-11-11-9-9-9).