Gametabs
Home
Tabs
Random

Quickman's Stage

Average rating: 5.000

2 ratings

Composer:

Tabber:

Style:

Instrument:

Created: September 30, 2007 at 12:00 AM

            Game: Mega Man 2
Song: Quick Man's stage.
Composed by: Some guy
Tabbed by: Not So Great Juja (Paul Horses)

Key:
~ = vibrato
p = pull-off
h = hammer-on
/ = slide
pm = palm-mute
tr = tremolo picking

Any questions or comments -
please, E-mail me at: [email protected]

e|---------------------------------------------------|
B|---------------------------------------------------|
G|----12---12----12------12----12---12----12------12-|
D|-13----10---13----13-10---13----10---13----13-10---|
A|---------------------------------------------------|
E|---------------------------------------------------|
 |                                                   |
e|---------------------------------------------------|
B|----13---13----13------13----13---13----13------13-|
G|-12----8----------12-8----12----8----------12-8----|
D|------------10-----------------------10------------|
A|---------------------------------------------------|
E|---------------------------------------------------|
 |                                                   |
G|---------------------------------------------------|
D|-10---10----10-10------8-10----10----10-10------8--|
A|----10---10------10-10------10----10-------10-10---|
E|---------------------------------------------------|


======================================================


e|---------------------------------------------------|
B|---------------------------------------------------|
G|----10---10----10------10----10---10----10------10-|
D|-12----8----12----12-8----12----8----12----12-8----|
A|---------------------------------------------------|
E|---------------------------------------------------|
 |                                                   |
e|---------------------------------------------------|
B|----11---11----11------11----11---11----11------11-|
G|-10----7----------10-7----10----7----------10-7----|
D|------------8------------------------8-------------|
A|---------------------------------------------------|
E|---------------------------------------------------|
 |                                                   |
G|---------------------------------------------------|
D|-8----8-----8-8--------6--8-----8-----8-8-------6--|
A|----8----8--------8-8--------8-----8--------8-8----|
E|---------------------------------------------------|


======================================================


e|---------------------------------------------------|
B|---------------------------------------------------|
G|----12---12----12------12----12---12----12------12-|
D|-13----10---13----13-10---13----10---13----13-10---|
A|---------------------------------------------------|
E|---------------------------------------------------|
 |                                                   |
e|---------------------------------------------------|
B|----13---13----13------13----13---13----13------13-|
G|-12----8----------12-8----12----8----------12-8----|
D|------------10-----------------------10------------|
A|---------------------------------------------------|
E|---------------------------------------------------|
 |                                                   |
G|---------------------------------------------------|
D|-10---10----10-10------8-10----10----10-10------8--|
A|----10---10------10-10------10----10-------10-10---|
E|---------------------------------------------------|


======================================================


e|----------------------------------------10-13------|
B|-------------------------------------11------------|
G|----10---10----10------10---------10---------------|
D|-12----8----12----12-8----8-10-12------------------|
A|----------------------------------------------13-14|
E|---------------------------------------------------|
 |                                                   |
e|----------------------------------------10-13------|
B|----11---11----11------11------------11------------|
G|-10----7----------10-7-----------10----------------|
D|------------8------------8-10-12-------------------|
A|---------------------------------------------------|
E|---------------------------------------------------|
 |                                                   |
G|---------------------------------------------------|
D|-8----8-----8-8--------6---------------------------|
A|----8----8--------8-8------------------------------|
E|---------------------------------------------------|


======================================================


e|---------------------------------------------------|
B|---------------------------------------------------|
G|---------------------------------------------10----|
D|10~------------------------------------12-13-------|
A|---------------------------------------------------|
E|---------------------------------------------------|
 |                                                   |
e|---------------------------------------------------|
B|----13---13----13------13----13---13----13------13-|
G|-12----8----------12-8----12----8----------12-8----|
D|------------10-----------------------10------------|
A|---------------------------------------------------|
E|---------------------------------------------------|
 |                                                   |
G|---------------------------------------------------|
D|-10---10----10-10------8-10----10----10-10------8--|
A|----10---10------10-10------10----10-------10-10---|
E|---------------------------------------------------|


======================================================


e|---------------------------------------------------|
B|---------------------------------------------------|
G|---------------------------------------------------|
D|-12--13--12-10-------10-12-10----------------------|
A|-----------------------------13------13-------14---|
E|---------------------------------------------------|
 |                                                   |
e|---------------------------------------------------|
B|----11---11----11------11----11---11----11------11-|
G|-10----7----------10-7----10----7----------10-7----|
D|------------8------------------------8-------------|
A|---------------------------------------------------|
E|---------------------------------------------------|
 |                                                   |
G|---------------------------------------------------|
D|-8----8-----8-8--------6--8-----8-----8-8-------6--|
A|----8----8--------8-8--------8-----8--------8-8----|
E|---------------------------------------------------|


======================================================


e|---------------------------------------------------|
B|---------------------------------------------------|
G|-----------------------------------------------10--|
D|10~-----------------------------------12--13-------|
A|---------------------------------------------------|
E|---------------------------------------------------|
 |                                                   |
e|---------------------------------------------------|
B|----13---13----13------13----13---13----13------13-|
G|-12----8----------12-8----12----8----------12-8----|
D|------------10-----------------------10------------|
A|---------------------------------------------------|
E|---------------------------------------------------|
 |                                                   |
G|---------------------------------------------------|
D|-10---10----10-10------8-10----10----10-10------8--|
A|----10---10------10-10------10----10-------10-10---|
E|---------------------------------------------------|



==============================================================================


e|------------15-13-11-13-11--11----------------------------------------------|
B|--------------------------15--15-13-15-13-11-13-11--11----------------------|
G|12~-----------------------------------------------13--13-12-13-12-10-12-10--|
D|--------------------------------------------------------------------------13|
A|----------------------------------------------------------------------------|
E|----------------------------------------------------------------------------|
 |                                                                            |
e|------------15-13-11-13-11--11----------------------------------------------|
B|---11-----11--------------15--15-13-15-13-11-13-11--11----------------------|
G|-10--10-7-----------------------------------------13--13-12-13-12-10-12-10--|
D|--------------------------------------------------------------------------13|
A|----------------------------------------------------------------------------|
E|----------------------------------------------------------------------------|
 |                                                                            |
G|----------------------------------------------------------------------------|
D|-8----8-----8-8--------6--8-----8-----8-8-------6---------------------------|
A|----8----8--------8-8--------8-----8--------8-8-----------------------------|
E|----------------------------------------------------------------------------|


===============================================================================


e|-----------------------------------------------------------|
B|-----------------------13--11------------------11----------|
G|-12------------12--13----------------------12--------------|
D|-----------------------------------------------------------|
A|-----------------------------------------------------------|
E|-----------------------------------------------------------|
 |                                                           |
e|-----------------------------------------------------------|
B|-----------------------------------------------------------|
G|----------------------12-----------------------12----------|
D|-13-----------13--15------12---------------12--------------|
A|-----------------------------------------------------------|
E|-----------------------------------------------------------|
 |                                                           |
G|-----------------------13--------------------------15------|
D|-------10-13-10---10-13--13-10------12-15-12--12-15--15-12-|
A|-11-11----------11-------------13-13--------13-------------|
E|-----------------------------------------------------------|


==============================================================


e|------------------10---13--11--------------11--10----------|
B|-12------------12----------------------------------13--11--|
G|-----------------------------------------------------------|
D|-----------------------------------------------------------|
A|-----------------------------------------------------------|
E|-----------------------------------------------------------|
 |                                                           |
e|-----------------------------------------------------------|
B|------------------12--15--13---------------13--15--13------|
G|-12-----------12---------------------------------------15--|
D|-----------------------------------------------------------|
A|-----------------------------------------------------------|
E|-----------------------------------------------------------|
 |                                                           |
G|-----------------------16---------------------------17-----|
D|----------17---------17--17------------17---------17--17---|
A|-14-14-17---17--14-17-------17-15-15-18--18--15-18------18-|
E|-----------------------------------------------------------|


==============================================================


e|-----------------------------------------------------------|
B|----------------------------11----------11--9--8-----------|
G|-13-------13--12--10---------------------------------------|
D|-----------------------------------------------------------|
A|-----------------------------------------------------------|
E|-----------------------------------------------------------|
 |                                                           |
e|-----------------------------------------------------------|
B|-----------------------------------------------------------|
G|----------------------------12----------12--10-8-----------|
D|-15-------15--13--11---------------------------------------|
A|-----------------------------------------------------------|
E|-----------------------------------------------------------|
 |                                                           |
G|-----------------------------------------------------------|
D|--------------------11----------------------------13-------|
A|------8-11-8---8-11----11-8-------10-13-10---10-13---13-10-|
E|-9--9--------9--------------11--11---------11--------------|


==============================================================


e|-----------------------------------------------------11-12-|
B|-h13h18p13p9(x4)-----------------13--13--13-13-13-13-------|
G|-----------------------------------------------------------|
D|-----------------------------------------------------------|
A|-----------------------------------------------------------|
E|-----------------------------------------------------------|
 |                                                           |
e|-----------------------------------------------------------|
B|-----------------------------------------------------------|
G|-h13h17p13p10(x4)----------------13--13--13-13-13-13-12-13-|
D|-----------------------------------------------------------|
A|-----------------------------------------------------------|
E|-----------------------------------------------------------|
 |                                                           |
G|-----------------------------------------------------------|
D|------------------------15---------------------------------|
A|-----------15-------15----15-------------------------13-14-|
E|-13--13-16---16--16---16----16---13--13--13-13-13-13-------|

        
Comments

@jon (February 14, 2007 at 5:43 PM)

haha... pretty good man i liked it.... keep up the good work