Gametabs
Home
Tabs
Random

Quick Man

Average rating: 5.000

1 ratings

Composer:

Tabber:

Style:

Instrument:

Created: December 03, 2011 at 12:00 AM

                                        Mega Man 2 - Quick man                              


Music by: Takashi Tateishi
Tabbed by: Alfa_ice

Standard tuning: EADGBE

      E   S E   E  E   E   S E   E      E   S E   E  E   E   S E   E   
E||-------8-----8------8---------8--|-------8-----8------8---------8--|
B||---8------------8-------8--------|---8------------8-------8--------|
G||---------8----------------8------|---------8----------------8------|
D||--10--------10-----10--------10--|--10--------10-----10--------10--|
A||------10---------------10--------|------10---------------10--------|
E||---------------------------------|---------------------------------|


  E  S E  E  E  E  S E  E     E  S E  E  E  E  S E  E   
-----6----6-----6-------6--|-----6----6-----6-------6--|
--6----------6-----6-------|--6----------6-----6-------|
-------7-------------7-----|-------7-------------7-----|
--8-------8-----8-------6--|--8-------8-----8-------6--|
-----8-------------8-------|-----8-------------8-------|
---------------------------|---------------------------|


   E   S E   E  E   E   S E   E      E   S E   E  E   E   S E   E   
-------8-----8------8---------8--|-------8-----8------8---------8--|
---8------------8-------8--------|---8------------8-------8--------|
---------8----------------8------|---------8----------------8------|
--10--------10-----10--------10--|--10--------10-----10--------10--|
------10---------------10--------|------10---------------10--------|
---------------------------------|---------------------------------|


  E  S E  E  E  E  S E  E     S  S  S  E   S  S  E  E  S E  E   
-----6----6-----6-------6--|-----------------10-13-------------|
--6----------6-----6-------|--------------11-------------------|
-------7-------------7-----|----------10-----------------------|
--8-------8-----8-------6--|--8-10-12--------------------8--9--|
-----8-------------8-------|-----------------------------------|
---------------------------|-----------------------------------|


   W                    E.  E.  E  E.  E.  E     Q.     S S  S Q    E.   
---------------------|------------------------|-------------------------|
---------------------|----------6-------------|-------------------------|
---------------------|--7---8------7---8---7--|--5------5-7p-5----------|
--10~----------------|------------------------|----------------8----L---|
---------------------|------------------------|-------------------------|
---8-----------------|--L----------6---L---L--|--L----------------------|


  Q    Q     H            H        E.  E.   E   
-----------------------|-----------------------|
-----------------------|-----------------------|
-----------------------|-----------7---8---10--|
--8----9----10~--------|--L--------------------|
-----------------------|-----------------------|
-------------8---------|--L--------L-----------|


   H          S  S  S  S  S  S  S  S  
-------------15-13-11-13-11-10-11-10-|
-------------------------------------|
--12~--------------------------------|
-------------------------------------|
--10---------------------------------|
-------------------------------------|


   S  S  S  S  S  S  S  S  S  S  S  S  S  S  S  S    E   H         E.   E  S  
-----10-------------------------------------------|--------------------------|
--13----13-11-13-11----11-------------------------|--------------------------|
--------------------13----13-12-13-12-10-12-10----|-----12--------12---13----|
-----------------------------------------------13-|--L-----------------------|
--------------------------------------------------|-----10--------10---------|
--------------------------------------------------|--------------------------|


   E   H         Q     E      E   H         E.   E.   
--------------------------|---------------------10---|
--13--11--------------11--|---L--12--------12--------|
----------------12--------|--------------------------|
-------8------------------|-------9---------9--------|
----------------10--------|--------------------------|
--------------------------|--------------------------|


   E   H         E    E   E       E  E  Q    Q     E   E   
--13--11--------11p--10-------|---------------------------|
-------------------------13h--|--11--9--L----9------------|
------------------------------|-------------------12--10--|
------10--------10------------|---------------------------|
-------------------------10---|------------------------8--|
------------------------------|------9--L----9------------|


  E   E   Q     Q     E   E     E   S  S  S  S  S  S  S  S  S  S  S  S  S  S  
-----------------------------|--------13----------13----------13----------13-|
-----11---L----11------------|-----13----13----13----13----13----13----13----|
---------------------13--12--|--------------13----------13----------13-------|
-----------------------------|-----------------------------------------------|
-------------------------10--|-----------------------------------------------|
-----11---L----11------------|-----------------------------------------------|


   S  S  E  E   E  S  E   E   S  E      Q               
--------------------------------11--|--12\----|-------||
--13----13-----13----13--13--13-11--|---------|-------||
-----13-13-----13----13--13--13-----|---------|-------||
------------------------------------|---------|-------||
---------8------8-----8---8---8-----|---------|-------||
------------------------------------|---------|-------||




Duration Legend
---------------
W - whole
H - half
Q - quarter
E - 8th
S - 16th
T - 32nd
X - 64th
. - note dotted
|-n-|  - n-tuplets


Tablature Legend
----------------
L - tied note
x - dead note
g - grace note
(n) - ghost note
> - accentuded note
NH - natural harmonic
AH - artificial harmonic
TH - tapped harmonic
SH - semi harmonic
PH - pitch harmonic
h - hammer on
p - pull off
b - bend
br - bendRelease
pb - preBend
pbr - preBendRelease
brb - bendReleaseBend
\n/ - tremolo bar dip
\n - tremolo bar dive
-/n - tremolo bar Release up
/n\ - tremolo bar inverted dip
/n - tremolo bar return
-\n - tremolo bar Release down
S - shift slide
s - legato slide
/ -  slide into from below or out of upwards
\ -  slide into from above or out of downwards
~ - vibrato
W - wide vibrato
tr - trill
TP - tremolo picking
T - tapping
S - slap
P - pop
< - fade in
^ - brush up
v - brush down
        
Comments

@Alfa_ice (May 05, 2013 at 1:54 PM)

Here is a link if you want to listen to the guitar recording of this arrangement: http://www.youtube.com/watch?v=KYMsaCMEDhE