Gametabs
Home
Tabs
Random

Solar Inferno

Average rating: 5.000

1 ratings

Composer:

Tabber:

Style:

Instrument:

Created: March 24, 2010 at 12:00 AM

            Solar Inferno
By Sound Team Inti III (Toripuruai)
Mega Man 10
Tabbed by Brainsick Fungus
3/20/10


e--------------------------------------------------------------------------------|
B--------------------------------------------------------------------------------|
G----------------------------4-3--4----------------------------------------------|
D-2-2-2-2-2-5-4--0-2-2-2-2-2--------2-2-2-2-2-5-4--0--2-1-0----5-4-0-------------|
A-----------------------------------------------------------4--------------------|
E--------------------------------------------------------------------------------|

e--------------------------------------------------------------------------------|
B--------------------------------------------------------------------------------|
G-----------------------------4-3--4-------------------4-3-2-1--0----------------|
D-2-2-2-2-2-5-4--0--2-2-2-2-2--------2-2-2-2-2-5-4--0-------------4-0------------|
A--------------------------------------------------------------------------------|
E--------------------------------------------------------------------------------|

e------------------------------6/7-----------------------------------------------|
B-7/8-8-7/8-8-7/8-8-7/8-8----------8-7-5------5-7/8-8------8-7-------------------|
G-------------------------7-\6------------4-7---------7-\6-----------------------|
D--------------------------------------------------------------------------------|
A--------------------------------------------------------------------------------|
E--------------------------------------------------------------------------------|

e--------------------------9--11/12----------------------------------------------|
B-7/8-8-7/8-8-7/8-8-7/8-8-----------8-7-5------5-7/8-8-------8-7-----------------|
G------------------------------------------4-7----------7-\6---------------------|
D--------------------------------------------------------------------------------|
A--------------------------------------------------------------------------------|
E--------------------------------------------------------------------------------|

e-6/7-7-6/7-7-6/7-7-6/7-7-------11/12----------------6/7-7-------7-6-------------|
B-------------------------8-/7--------12-10-8----7-8--------8-\7-----------------|
G----------------------------------------------7---------------------------------|
D--------------------------------------------------------------------------------|
A--------------------------------------------------------------------------------|
E--------------------------------------------------------------------------------|

e-6/7-7-6/7-7-6/7-7-6/7-7-12--14/15----------------6/7-7----10-9-8---------------|
B-----------------------------------12-10-8----7-8-------8-----------------------|
G--------------------------------------------7-----------------------------------|
D--------------------------------------------------------------------------------|
A--------------------------------------------------------------------------------|
E--------------------------------------------------------------------------------|

e--------------------------------------------------------------------------------|
B--------------------------------------------------------------------------------|
G---------0----------2----------4--5-4-2-0----------0----------2---------4-------|
D-2-2-2-2----2-2-2-2----2-2-2-2-------------2-2-2-2----2-2-2-2---2-2-2-2---------|
A--------------------------------------------------------------------------------|
E--------------------------------------------------------------------------------|

e----------------------------------------------------12------10------8-7---------|
B--------------------------------------------------------12------10--------------|
G-7-5-4-2----------0----------2----------4--5-4-2-0------------------------------|
D----------2-2-2-2----2-2-2-2----2-2-2-2-----------------------------------------|
A--------------------------------------------------------------------------------|
E--------------------------------------------------------------------------------|

e-12-10-14-10-10-11-12---------------12-10-14-10-10-11-12------------------------|
B----------------------0-----7/8-7------------------------12-11-10-9/10-9-8------|
G------------------------7-9-------7---------------------------------------------|
D--------------------------------------------------------------------------------|
A--------------------------------------------------------------------------------|
E--------------------------------------------------------------------------------|

e-12-10-14-10-10-11-12-----0--------------------------4/5-3-2--------------------|
B----------------------------7/8-7----4/5\4/5-5/7\5/7---------4-/5-/7------------|
G------------------------5---------7---------------------------------------------|
D----------------------7---------------------------------------------------------|
A--------------------------------------------------------------------------------|
E--------------------------------------------------------------------------------|

e-12-10-14-10-10-11-12---------------12-10-14-10-10-11-12------------------------|
B----------------------0-----7/8-7------------------------12-11-10-9/10-9-8------|
G------------------------7-9-------7---------------------------------------------|
D--------------------------------------------------------------------------------|
A--------------------------------------------------------------------------------|
E--------------------------------------------------------------------------------|

e-17-15-19-15-15-16-17-------------------------------------------------7-10-11-12|
B------------------------------11/12-10-13-------------------9/10\8/10-----------|
G-------------------------9-12-------------8/9\8/9-9/11\9/11---------------------|
D----------------------10--------------------------------------------------------|
A--------------------------------------------------------------------------------|
E--------------------------------------------------------------------------------|

==Key==

/  slide up
\  slide down

        
Comments

@RexLeRouge (August 26, 2010 at 5:01 PM)

there is some mistakes:

e--------------------------------------------------------------------------|
B--------------------------------------------------------------------------|
G------------------------3-2--4--------------------------------------------|
D-2-2-2-2-5-4--0-2-2-2-5--------2-2-2-2-5-4--0--2-1-0----5-4-0-------------|
A-----------------------------------------------------4--------------------|
E--------------------------------------------------------------------------|

e--------------------------------------------------------------------------|
B--------------------------------------------------------------------------|
G-------------------------3-2--4-----------------4-3-2-1--0----------------|
D-2-2-2-2-5-4--0--2-2-2-5--------2-2-2-2-5-4--0-------------4-0------------|
A--------------------------------------------------------------------------|
E--------------------------------------------------------------------------|