Gametabs
Home
Tabs
Random

No Turning Back

Average rating: 5.000

1 ratings

Composer:

Tabber:

Style:

Instrument:

Created: April 06, 2010 at 12:00 AM

            No Turning Back
By Sound Team Inti III
Mega Man 10
Tabbed by Brainsick Fungus 
4/02/10


e-10--8---8-10-11--10-13--11-10-11-13--15-------|
B-------8---------------------------------13----|
G-----------------------------------------------|
D-----------------------------------------------|
A-----------------------------------------------|
E-----------------------------------------------|

e-8-10-11-------8-11-10----------10-8----------13-11-10----10--------|
B----------9--9----------8--8-11---------10-13----------13----13-11--|
G-------------------------------------10-----------------------------|
D--------------------------------------------------------------------|
A--------------------------------------------------------------------|
E--------------------------------------------------------------------|

e-10--8---8-10-11--10-13--11-10-11-13--15-------|
B-------8---------------------------------13----|
G-----------------------------------------------|
D-----------------------------------------------|
A-----------------------------------------------|
E-----------------------------------------------|

e-8-10-11----------11-10-11-10-----------------13-15-13-----------------------|
B----------9--9-13-------------11-13--13-15-16----------16-15----16-15-15--13-|
G-------------------------------------------------------------14--------------|
D-----------------------------------------------------------------------------|
A-----------------------------------------------------------------------------|
E-----------------------------------------------------------------------------|

e-------13-15--------13-15--13-15--18--15-13----|
B-13-16--------13-16--------------------------11|
G-----------------------------------------------|
D-----------------------------------------------|
A-----------------------------------------------|
E-----------------------------------------------|

e-------11-15-----11-13-15--13-15--18-20-22-----|
B-11-13--------13----------------------------20-|
G-----------------------------------------------|
D-----------------------------------------------|
A-----------------------------------------------|
E-----------------------------------------------|

e-15-16-18-15--13-11-10--------10--------10-11-10-11-13-15--13-15-19-22--20---|
B-----------------------13--12--------13------------------------------------20|
G----------------------------------12-----------------------------------------|
D-----------------------------------------------------------------------------|
A-----------------------------------------------------------------------------|
E-----------------------------------------------------------------------------|

e-------18-----15-16-18-15------16s18-16-15-----|
B-20-21----20---------------18------------------|
G-----------------------------------------------|
D-----------------------------------------------|
A-----------------------------------------------|
E-----------------------------------------------|

        
Comments

@iiRockpuppy (February 22, 2011 at 3:55 AM)

This is an awesome tab, but what stage is it from?