Gametabs
Home
Tabs
Random

Nitro Rider

Average rating: 5.000

1 ratings

Composer:

Tabber:

Style:

Instrument:

Created: December 17, 2009 at 12:00 AM

                                   Mega Man 10 - Nitro Man BASS TAB
                         Composed by Manami Matsumae

                    Tabbed by Auriplane ([email protected])


I made this tab back when there was just a trailer, so I posted it under
"trailer song".  I've updated it!

Four-string bass, standard tuning.


    Part A

G |--------------------------------|--------------------------------|
D |8-8-8-8-8-8-8-8-8-8-8-8-8-8-8-8-|6-6-6-6-6-6-6-6-6-6-6-6-6-6-6-6-|
A |--------------------------------|--------------------------------|
E |--------------------------------|--------------------------------|

G |--------------------------------|--------------------------------|
D |--------------------------------|--------------------------------|
A |9-9-9-9-9-9-9-9-9-9-9-9-9-9-9-9-|--------------------------------|
E |--------------------------------|9-9-9-9-9-9-9-9-9-9-9-9-9-9-9-9-|

G |--------------------------------|--------------------------------|
D |--------------------------------|8-8-8-8-8-8-8-8-8-8-8-8-8-8-8-8-|
A |6-6-6-6-6-6-6-6-6-6-6-6-6-6-6-6-|--------------------------------|
E |--------------------------------|--------------------------------|

G |5-5-5-5-5-5-5-5-5-5-5-5-5-5-5-5-|--------------------------------|
D |--------------------------------|--------------------------------|
A |--------------------------------|8-8-8-8-8-8-8-8-8-8-7-7-8-8-8-8-|
E |--------------------------------|--------------------------------|

    Part B

G |--------------------------------|--------------------------------|
D |--------------------------------|--------6-6-6-6---------6---9-6-|
A |9-9-9-9-9-9-9-9-8-8-8-8-8-8-8-8-|6-6-6-6-----------6-8-----------|
E |--------------------------------|----------------9-----9---9-----|

G |--------------------------------|--------------------------------|
D |--------------------------------|--------------------------------|
A |9-9-9-9-9-9-9-9-9-9-9-9-9-9-9-9-|8-8-8-8-8-8-8-8-7-7-7-7-7-7-7-7-|
E |--------------------------------|--------------------------------|

G |--------------------------------|--------------------------------|
D |--------------------------------|--------------------------------|
A |6-6-6-6-6-6-6-6-7-7-7-7-7-7-7-7-|8-8-8-8-8-8-8-8-8---------------|
E |--------------------------------|--------------------------------|

    Part C

G |--------------------------------|--------------------------------|
D |8-8-8-8-8-8-8-7---7-7-7-7-7-7-7-|6-6-6-6-6-6-6-5---5-5-5-5-5-5-5-|
A |--------------------------------|--------------------------------|
E |--------------------------------|--------------------------------|

G |--------------------------------|----------------10--9---8-------|
D |--------------------------------|--------------------------------|
A |9-9-9-9-9-9-9-8---8-8-8-8-8-8-8-|7-7-7-7-7-7-7-7-------------8---|
E |--------------------------------|--------------------------------|

G |--------------------------------|--------------------------------|
D |8-8-8-8-8-8-8-7---7-7-7-7-7-7-7-|6-6-6-6-6-6-6-5---5-5-5-5-5-5-5-|
A |--------------------------------|--------------------------------|
E |--------------------------------|--------------------------------|

    Part D

G |--------------------------------|--------------------------------|
D |--------------------------------|--------------------------------|
A |6-6-6-6-6-6-6-6-8-8-8-8-8-8-8-8-|9-9-9-9-9-9-9-9-9-9-9-9-8-8-8-8-|
E |--------------------------------|--------------------------------|

G |--------------------------------|--------------------------------|
D |--------------------------------|--------------------------------|
A |6-6-6-6-6-6-6-6-6-6-6-6-8-8-8-8-|9-9-9-9-9-9-9-9-9-9-9-9-8-8-8-8-|
E |--------------------------------|--------------------------------|

G |--------------------------------|
D |--------------------------------|
A |6-6-6-6-6-6-6-6-6-6-6-6-8-8-8-8-|
E |--------------------------------|

G |--------------------------------|
D |8-8-8-8-8-8-8---8-8-8-8-8-8-8---| x4
A |--------------------------------|
E |--------------6---------------6-|

        
Comments

@soundsandstuff (December 18, 2009 at 3:38 AM)

You've just made history; the first Mega Man 10 tab ever. The snail queen triumphs! x)