Gametabs
Home
Tabs
Random

Title Screen

Average rating: No ratings

Composer:

Tabber:

Style:

Instrument:

Created: June 06, 2013 at 12:00 AM

                         M.A.S.K. III: Venom Strikes Back (BASS TAB)
                     Composed by Ben Daglish

               Tabbed by auriplane ([email protected])



There are only a few patterns in this song; sometimes two notes are
removed (on the 2 and 4) to make room for the snare.  (If you like,
you can just play the same patterns without dropping the notes, but
I decided to write the tab the way it sounds on the C64.)

Five-string bass, standard tuning.


    Intro (0:00)

G |----5---4-----------------------|----5---4-----------------5---7-| \
D |--------------7-----5---3---5---|--------------7-----5---3---5---|  \
A |5-5---5---5-5---5-5---5---5---3-|5-5---5---5-5---5-5---5---------|   |
E |--------------------------------|--------------------------------|   |
B |--------------------------------|--------------------------------|   |
                                                                        | x2
                                                                        |
G |----5---4-----------------------|----3---3---2-------------------|   |
D |--------------7-----5---3---5---|--------------5-----5---5-------|   |
A |5-5---5---5-5---5-5---5---5---3-|--------------------------2-3-4-|   |
E |--------------------------------|6-6---6---6-----3-3---3---------|  /
B |--------------------------------|--------------------------------| /


G |--------------------------------|--------------------------------|
D |----7---5-7---5-----7---5-7---5-|----7---5-7---5-----7---5-7---5-|
A |--------------------------------|--------------------------------|
E |5-5---5-----5---5-5---5-----5---|5-5---5-----5---5-5---5-----5---|
B |--------------------------------|--------------------------------|

    Part A (0:25)

G |----5---------------------------|----5---------------------5---7-| \
D |--------------7-----5-------5---|--------------7-----5-------5---|  \
A |5-5---5---5-5---5-5---5---5-----|5-5---5---5-5---5-5---5---------|   |
E |------------------------------8-|--------------------------------|   |
B |--------------------------------|--------------------------------|   |
                                                                        | x2
                                                                        |
G |----5---------------------------|--------------------------------|   |
D |--------------7-----5-------5---|----8-------7-5-----5-----------|   |
A |5-5---5---5-5---5-5---5---5-----|--------------------------2-3-4-|   |
E |------------------------------8-|6-6---6---6-----3-3---3---------|  /
B |--------------------------------|--------------------------------| /

    Part B (0:45)

G |----5-----3-2-------------------|----5-----3-2-------------------|
D |--------------------5-----------|--------------------5-----------|
A |3-------------------------1-2-3-|--------------------------2-3-4-|
E |--------------3-----------------|--------------3-----------------|
B |--------------------------------|--------------------------------|

    Part C (0:51)

G |----5---------------------------|----5---------------------5---7-| \
D |--------------7-----5-------5---|--------------7-----5-------5---|  \
A |5-5---5---5-5---5-5---5---5-----|5-5---5---5-5---5-5---5---------|   |
E |------------------------------8-|--------------------------------|   |
B |--------------------------------|--------------------------------|   |
                                                                        | x2
                                                                        |
G |----5---------------------------|--------------------------------|   |
D |--------------7-----5-------5---|----8-------7-5-----5-----------|   |
A |5-5---5---5-5---5-5---5---5-----|--------------------------2-3-4-|   |
E |------------------------------8-|6-6---6---6-----3-3---3---------|  /
B |--------------------------------|--------------------------------| /

    Part D (1:11)

G |----5-----3-2-------------------|----5-----3-2-------------------|
D |--------------------5-----------|--------------------5-----------|
A |3-------------------------1-2-3-|--------------------------2-3-4-|
E |--------------3-----------------|--------------3-----------------|
B |--------------------------------|--------------------------------|


G |----7-----5-4-------------------|----7-----5-4-------------------|
D |--------------------7-----------|--------------------7-----------|
A |5-------------------------3-4-5-|--------------------------4-5-6-|
E |--------------5-----------------|--------------5-----------------|
B |--------------------------------|--------------------------------|

    Part E (1:21)

G |----9---7-9---7-----9---7-9---7-|----9---7-9---7-----9---7-9---7-|
D |--------------------------------|--------------------------------|
A |7-7---7-----7---7-7---7-----7---|7-7---7-----7---7-7---7-----7---| x2
E |--------------------------------|--------------------------------|
B |--------------------------------|--------------------------------|

    Part F (1:31)

G |----9---7-9---7-----9---7-9---7-|----9---7-9---7-----9---7-9---7-| \
D |--------------------------------|--------------------------------|  \
A |7-7---7-----7---7-7---7-----7---|7-7---7-----7---7-7---7-----7---|   |
E |--------------------------------|--------------------------------|   |
B |--------------------------------|--------------------------------|   |
                                                                        | x2
                                                                        |
G |----7---5-7---5-----7---5-7---5-|----5---3-5---3-----5---3-5---3-|   |
D |--------------------------------|--------------------------------|   |
A |5-5---5-----5---5-5---5-----5---|3-3---3-----3---3-3---3-----3---|   |
E |--------------------------------|--------------------------------|  /
B |--------------------------------|--------------------------------| /

    Part G (1:52)

G |----9-----9---7-----9-----9---7-|----9-----9---7-----9-----9---7-| \
D |--------------------------------|--------------------------------|  \
A |7-7---7-----7---7-7---7-----7---|7-7---7-----7---7-7---7-----7---|   |
E |--------------------------------|--------------------------------|   |
B |--------------------------------|--------------------------------|   |
                                                                        | x2
                                                                        |
G |----7-----7---5-----7-----7---5-|----5-----5---3-----5-----5---3-|   |
D |--------------------------------|--------------------------------|   |
A |5-5---5-----5---5-5---5-----5---|3-3---3-----3---3-3---3-----3---|   |
E |--------------------------------|--------------------------------|  /
B |--------------------------------|--------------------------------| /


G |----------------|
D |----------------|
A |----5-7-----5---|
E |----------------|
B |5-5-------3---4-|

    Part H (2:14)

G |----7---------------------------|----7---------------------7---9-| \
D |--------------9-----7-------7---|--------------9-----7-------7---|  \
A |7-7---7---7-7---7-7---7---7-----|7-7---7---7-7---7-7---7---------|   |
E |------------------------------10|--------------------------------|   |
B |--------------------------------|--------------------------------|   |
                                                                        | x2
                                                                        |
G |----7---------------------------|--------------------------------|   |
D |--------------9-----7-------7---|----10------9-7-----7-----------|   |
A |7-7---7---7-7---7-7---7---7-----|--------------------------4-5-6-|   |
E |------------------------------10|8-8---8---8-----5-5---5---------|  /
B |--------------------------------|--------------------------------| /

    Part I (2:34)

G |----7-----5-4-------------------|----7-----5-4-------------------|
D |--------------------7-----------|--------------------7-----------|
A |5-------------------------3-4-5-|--------------------------4-5-6-|
E |--------------5-----------------|--------------5-----------------|
B |--------------------------------|--------------------------------|

    Part J (2:39)

G |----9---7-9---7-----9---7-9---7-|----9---7-9---7-----9---7-9---7-|
D |--------------------------------|--------------------------------|
A |7-7---7-----7---7-7---7-----7---|7-7---7-----7---7-7---7-----7---| x4
E |--------------------------------|--------------------------------|
B |--------------------------------|--------------------------------|

    Repeat back to the beginning.




        
Comments

No comments yet