Gametabs
Home
Tabs
Random

Teehee Valley

Average rating: 5.000

4 ratings

Composer:

Tabber:

Style:

Instrument:

Created: March 27, 2008 at 12:00 AM

                 W                   W                   Q.     S. T  Q.     E   
E||-------------------|-------------------|--------------10---------|
B||-------------------|-------------------|--8------11-----------11-|
G||-------------------|-------------------|-------------------------|
D||-------------------|-------------------|-------------------------|
A||-------------------|-------------------|-------------------------|
E||-------------------|-------------------|-------------------------|


   Q.      S.T  Q    S. T  S.T    Q.      E  Q    E  E     E  E  H        Q     
--13------11---10----L----10---|--8------10--8----------|----------------------|
-------------------------------|------------------11-10-|--11p10p8-------------|
-------------------------------|------------------------|----------------------|
-------------------------------|------------------------|----------------------|
-------------------------------|------------------------|----------------------|
-------------------------------|------------------------|----------------------|


  Q.     S. T  Q.     E      Q.      S.T  Q    S. T  S.T  
--------------10---------|--13------11---10----L----10---|
--8------11-----------11-|-------------------------------|
-------------------------|-------------------------------|
-------------------------|-------------------------------|
-------------------------|-------------------------------|
-------------------------|-------------------------------|


  Q.      E  Q    E  E     E  E  H        Q       E  E  H        Q     
--8------10--8----------|----------------------|--8-------------------|
------------------11-10-|--11p10p8-------------|-----11-10------------|
------------------------|----------------------|----------------------|
------------------------|----------------------|----------------------|
------------------------|----------------------|----------------------|
------------------------|----------------------|----------------------|


  E.  T T E.  T T Q    E  E     T T T T S. T H        T S. S. T  
-----------------------8-----|---------------8--------L----8----|
--8-------8---10--11------11-|--10--8---------------------------|
------10---------------------|----------10----------------------|
-----------------------------|----------------------------------|
-----------------------------|----------------------------------|
-----------------------------|----------------------------------|


  T T T T S. T  H.              H        E.  Q    S  
--8------------10------------|--L--------L----------|
------11--8------------------|----------------------|
-----------------------------|----------------------|
-----------------------------|----------------------|
-----------------------------|----------------------|
-----------------------------|----------------------|


  E.  T T E.  T T Q    E  E     E.  T T E.  T T Q     E  E   
-----------------------8-----|------------------8----10--8--|
--8-------8---10--11------11-|--10--8---10--11--------------|
------11---------------------|------------------------------|
-----------------------------|------------------------------|
-----------------------------|------------------------------|
-----------------------------|------------------------------|


  S. T S. T H.              H        H           Q.     S. T  Q.     E   
--8----------------------|--------------------|--------------10---------|
-------11---8------------|--L-----------------|--8------11-----------11-|
-------------------------|--------------------|-------------------------|
-------------------------|--------------------|-------------------------|
-------------------------|--------------------|-------------------------|
-------------------------|--------------------|-------------------------|


   Q.      S.T  Q    S. T  S.T    Q.      E  Q    E  E     E  E  H        Q     
--13------11---10----L----10---|--8------10--8----------|----------------------|
-------------------------------|------------------11-10-|--11p10p8-------------|
-------------------------------|------------------------|----------------------|
-------------------------------|------------------------|----------------------|
-------------------------------|------------------------|----------------------|
-------------------------------|------------------------|----------------------|


  Q.     S. T  Q.     E      Q.      S.T  Q    S. T  S.T  
--------------10---------|--13------11---10----L----10---|
--8------11-----------11-|-------------------------------|
-------------------------|-------------------------------|
-------------------------|-------------------------------|
-------------------------|-------------------------------|
-------------------------|-------------------------------|


  Q.      E  Q    E  E     E  E  H        Q       E  E  H        Q     
--8------10--8----------|----------------------|--8-------------------|
------------------11-10-|--11p10p8-------------|-----11-10------------|
------------------------|----------------------|----------------------|
------------------------|----------------------|----------------------|
------------------------|----------------------|----------------------|
------------------------|----------------------|----------------------|


  E.  T T E.  T T Q    E  E     T T T T S. T H        T S. S. T  
-----------------------8-----|---------------8--------L----8----|
--8-------8---10--11------11-|--10--8---------------------------|
------11---------------------|----------10----------------------|
-----------------------------|----------------------------------|
-----------------------------|----------------------------------|
-----------------------------|----------------------------------|


  T T T T S. T  H.              H        E.  Q    S  
--8------------10------------|--L--------L----------|
------11--8------------------|----------------------|
-----------------------------|----------------------|
-----------------------------|----------------------|
-----------------------------|----------------------|
-----------------------------|----------------------|


  E.  T T E.  T T Q    E  E     E.  T T E.  T T Q     E  E   
-----------------------8-----|------------------8----10--8--|
--8-------8---10--11-----11--|--10--8---10--11--------------|
------11---------------------|------------------------------|
-----------------------------|------------------------------|
-----------------------------|------------------------------|
-----------------------------|------------------------------|


  S. T S. T H.              H        H                      
--8----------------------|--------------------|-----------||
-------11---8------------|--L-----------------|-----------||
-------------------------|--------------------|-----------||
-------------------------|--------------------|-----------||
-------------------------|--------------------|-----------||
-------------------------|--------------------|-----------||




Duration Legend
---------------
W - whole
H - half
Q - quarter
E - 8th
S - 16th
T - 32nd
X - 64th
. - note dotted
|-n-|  - n-tuplets

        
Comments

@doktai (May 03, 2008 at 5:55 PM)

cool tab, man. Just I'm sure there's a little bass-y part to it, and I'd love if you could include that :)


@curlycail (May 08, 2008 at 8:47 PM)

Brilliant, cheers.


@firepikekirby64 (November 24, 2012 at 10:19 PM)

Freaking amazing. Awesome tab.