Gametabs
Home
Tabs
Random

Rainbow Road

Average rating: 3.857

7 ratings

Composer:

Tabber:

Style:

Instrument:

Created: November 02, 2008 at 12:00 AM

            Rainbow Road
Mario Kart: Double Dash!!
Composed by Shinobu Tanaka & Kenta Nagata
Tabbed by hslesperance
9/28/08

Standard Tuning

e---0----------------2----------------3--------------------------
B----------------------------------------------------------------
G---0----------------2----------------3--------------------------
D----------------------------------------------------------------
A----------------------------------------------------------------
E----------------------------------------------------------------

e---------0--1---0-----------0----------------0--1-0-------------
B---1--3------------3--1--3----------------1----------1-----1----
G------------------------------0--------2----------------2-------
D----------------------------------------------------------------
A----------------------------------------------------------------
E----------------------------------------------------------------

e---------0--1---0-----------0--3--------5--5-3--8----------7-8--
B---1--3------------3--1--3--------------------------------------
G----------------------------------------------------------------
D----------------------------------------------------------------
A----------------------------------------------------------------
E----------------------------------------------------------------

e---10---------0--1---0-------------0-----------------0--1-0-----
B--------1--3------------3--1--3-------------------1----------1--
G--------------------------------------0--------2----------------
D----------------------------------------------------------------
A----------------------------------------------------------------
E----------------------------------------------------------------

e---------------3---3-1--0-----3--3-0-------------------------5--
B------1--------------------1----------1-----1----------3--6-----
G---2-------------------------------------2----------------------
D----------------------------------------------------------------
A----------------------------------------------------------------
E----------------------------------------------------------------

e---6-5------------------5--6-5-----------------------7--8-7-----
B--------6--3-6----3--6----------6--3--6--------5--8-------------
G----------------------------------------------------------------
D----------------------------------------------------------------
A----------------------------------------------------------------
E----------------------------------------------------------------

e-------------------7--8-7---------------------5--6-5------------
B---8--5-8----5--8----------8--5-8--5----3--6----------6--3-6----
G----------------------------------------------------------------
D----------------------------------------------------------------
A----------------------------------------------------------------
E----------------------------------------------------------------

e---------5--6-5----------5----5----------------7----------------
B---3--6----------6--3-3-------6----------------8----------------
G----------------------------------------------------------------
D----------------------------------------------------------------
A----------------------------------------------------------------
E----------------------------------------------------------------

e---3--1--0--------------8----7--8--10--10--8-8----8---3-3-------
B------------3----1----1-----------------------------------------
G----------------------------------------------------------------
D----------------------------------------------------------------
A----------------------------------------------------------------
E----------------------------------------------------------------

e---1--0--------------------------3--1--0--------------8---------
B---------1--3-----------------------------3----1----1-----------
G----------------------------------------------------------------
D----------------------------------------------------------------
A----------------------------------------------------------------
E----------------------------------------------------------------

e---7--8--10--10----8-8----10--12----------------13--12----------
B--------------------------------------------------------13-15---
G----------------------------------------------------------------
D----------------------------------------------------------------
A----------------------------------------------------------------
E----------------------------------------------------------------

e----------------------------------------------------------------
B----------------------1-----------------------------------------
G---0-0----------------------------------------------------------
D----------------------------------------------------------------
A----------------------------------------------------------------
E----------------------------------------------------------------

        
Comments

@X1 RED BONES 1X (November 08, 2008 at 2:00 PM)

That sound just aboot right


@Taai (February 25, 2009 at 9:06 PM)

Sounds really good ^_^


@shaamat (January 14, 2010 at 6:15 AM)

is perfect i love this song thank you for the tab


@Reiatsu0 (April 27, 2014 at 6:20 AM)

Here I'm Playing the Music, and it sounds very good ^^ http://www.gametabs.net/recording/reiatsu0/rainbow-road