Gametabs
Home
Tabs
Random

Rainbow Road

Average rating: 5.000

1 ratings

Composer:

Tabber:

Style:

Instrument:

Created: October 03, 2011 at 12:00 AM

                             Mario Kart 64 - Rainbow Road BASS TAB
                       Composed by Kenta Nagata
       
                Tabbed by auriplane ([email protected])
 

This is a really pretty song.  But you don't really have to play the
octaves (the pops).  Maybe I'm crazy, but I don't think they add too
much to the song on a real instrument.  Or maybe it's me, not the song.  
Play 'em if you like :-D

I included a four-string version at the end.  It's less accurate, but
still fun to play along with the original song!

Five-string bass, standard tuning.

        Intro

G |----------------|----------------|----------------|----------------|
D |-------------2--|----------------|-------------2--|----------------|
A |----------------|----------------|----------------|----------------|
E |----------------|----------------|----------------|----------------|
B |5-555-555-555-55|5-555-555-555-55|5-555-555-555-55|5-555-555-555-55|

        Part A

G |----------------|----------------|----------------|----------------| \
D |-------------2--|----------------|-------------2--|----------------|  \
A |----------------|----------------|----------------|----------------|   |
E |----------------|----------------|----------------|----------------|   |
B |5-555-555-555-55|5-555-555-555-55|5-555-555-555-55|5-555-555-555-55|   |
                                                                          | x2
G |----------------|----------------|----------------|----------------|   |
D |----------------|----------------|----------------|----------------|   |
A |-------------5--|----------------|-------------5--|----------------|   |
E |----------------|----------------|----------------|----------------|  /
B |3-333-333-333-33|3-333-333-333-33|3-333-333-333-33|3-333-333-333-33| /

        Part B

G |-------------2--|----------------|----------------|----------------|
D |----------------|----------------|----------------|----------------|
A |----------------|2-222-222-222-22|-------------4--|----------------|
E |5-555-555-555-55|----------------|----------------|----------------|
B |----------------|----------------|2-222-222-222-22|3-333-333-333-33|
                                                                       
G |----------------|----------------|----------------|----------------|
D |-----2----------|----------------|-------------2--|----------------|
A |----------------|----------------|----------------|----------------|
E |----------------|----------------|----------------|----------------|
B |5-555-555-555-55|5-555-555-555-55|5-555-555-555-55|5-555-555-555-55|

G |-------------2--|----------------|----------------|----------------|
D |----------------|----------------|----------------|----------------|
A |----------------|2-222-222-222-22|-------------4--|----------------|
E |5-555-555-555-55|----------------|----------------|----------------|
B |----------------|----------------|2-222-222-222-22|3-333-333-333-33|
                                                                       
G |----------------|----------------|----------------|----------------|
D |-------------2--|----------------|-------------2--|----------------|
A |----------------|----------------|----------------|----------------|
E |----------------|----------------|----------------|----------------|
B |5-555-555-555-55|5-555-555-555-55|5-555-555-555-55|5-555-555-555-55|

G |----------------|----------------|----------------|----------------|
D |-------------2--|----------------|-------------2--|----------------|
A |----------------|----------------|----------------|----------------|
E |----------------|----------------|----------------|----------------|
B |5-555-555-555-55|5-555-555-555-55|5-555-555-555-55|5-555-555-555-55|

        Now, repeat parts A and B again.  After that, go back to the intro.





Four-string version:

        Intro

G |-------------9--|----------------|-------------9--|----------------|
D |----------------|----------------|----------------|----------------|
A |7-777-777-777-77|7-777-777-777-77|7-777-777-777-77|7-777-777-777-77|
E |----------------|----------------|----------------|----------------|

        Part A

G |-------------9--|----------------|-------------9--|----------------| \
D |----------------|----------------|----------------|----------------|  \
A |7-777-777-777-77|7-777-777-777-77|7-777-777-777-77|7-777-777-777-77|   |
E |----------------|----------------|----------------|----------------|   |
                                                                          | x2
G |-------------7--|----------------|-------------7--|----------------|   |
D |----------------|----------------|----------------|----------------|   |
A |5-555-555-555-55|5-555-555-555-55|5-555-555-555-55|5-555-555-555-55|  /
E |----------------|----------------|----------------|----------------| /

        Part B

G |----------------|----------------|-------------6--|----------------|
D |-------------7--|----------------|----------------|----------------|
A |----------------|----------------|4-444-444-444-44|5-555-555-555-55|
E |5-555-555-555-55|7-777-777-777-77|----------------|----------------|
                                                                       
G |-----9----------|----------------|-------------9--|----------------|
D |----------------|----------------|----------------|----------------|
A |7-777-777-777-77|7-777-777-777-77|7-777-777-777-77|7-777-777-777-77|
E |----------------|----------------|----------------|----------------|

G |----------------|----------------|-------------6--|----------------|
D |-------------7--|----------------|----------------|----------------|
A |----------------|----------------|4-444-444-444-44|5-555-555-555-55|
E |5-555-555-555-55|7-777-777-777-77|----------------|----------------|
                                                                       
G |-------------9--|----------------|-------------9--|----------------|
D |----------------|----------------|----------------|----------------|
A |7-777-777-777-77|7-777-777-777-77|7-777-777-777-77|7-777-777-777-77|
E |----------------|----------------|----------------|----------------|

G |-------------9--|----------------|-------------9--|----------------|
D |----------------|----------------|----------------|----------------|
A |7-777-777-777-77|7-777-777-777-77|7-777-777-777-77|7-777-777-777-77|
E |----------------|----------------|----------------|----------------|

        Now, repeat parts A and B again.  After that, go back to the intro.


        
Comments

No comments yet