Gametabs
Home
Tabs
Random

Spool of Thread

Average rating: 5.000

1 ratings

Composer:

Tabber:

Style:

Instrument:

Created: May 12, 2013 at 12:00 AM

            ------------LEAD GUITAR------------Spool of Thread                                   

Track 1
                                      H        Q       H         Q     
E||-------|-------|-------|-------|--10-------------|--8--------10----|
B||-------|-------|-------|-------|-----------------|-----------------|
G||-------|-------|-------|-------|-----------------|-----------------|
D||-------|-------|-------|-------|-----------------|-----------------|
A||-------|-------|-------|-------|-----------------|-----------------|
E||-------|-------|-------|-------|-----------------|-----------------|


  Q    Q    Q       H        Q        H        Q       H         Q     
--6--------------|----------------|--10-------------|--8--------10----|
-------8---------|----------------|-----------------|-----------------|
------------7----|--5-------------|-----------------|-----------------|
-----------------|----------------|-----------------|-----------------|
-----------------|----------------|-----------------|-----------------|
-----------------|----------------|-----------------|-----------------|


  H        Q                H        Q       H         Q       Q    Q    Q     
--6-------------|-------|--10-------------|--8--------10----|--6--------------|
----------------|-------|-----------------|-----------------|-------8---------|
----------------|-------|-----------------|-----------------|------------7----|
----------------|-------|-----------------|-----------------|-----------------|
----------------|-------|-----------------|-----------------|-----------------|
----------------|-------|-----------------|-----------------|-----------------|


  H        Q       Q    Q    Q       H        Q       H        Q             
----------------|-----------------|--2--------5----|--3-------------|-------|
----------------|--1----3----4----|----------------|----------------|-------|
--5-------------|-----------------|----------------|----------------|-------|
----------------|-----------------|----------------|----------------|-------|
----------------|-----------------|----------------|----------------|-------|
----------------|-----------------|----------------|----------------|-------|


   H        Q       H         Q       Q    Q    Q       H        Q     
--10-------------|--8--------10----|--6--------------|----------------|
-----------------|-----------------|-------8---------|----------------|
-----------------|-----------------|------------7----|--5-------------|
-----------------|-----------------|-----------------|----------------|
-----------------|-----------------|-----------------|----------------|
-----------------|-----------------|-----------------|----------------|


   H        Q       H         Q       Q    Q    Q        H        Q     
--10-------------|--8--------10----|--6--------------|--11--------8----|
-----------------|-----------------|-------8---------|-----------------|
-----------------|-----------------|------------7----|-----------------|
-----------------|-----------------|-----------------|-----------------|
-----------------|-----------------|-----------------|-----------------|
-----------------|-----------------|-----------------|-----------------|


   H        Q       H         Q       Q    Q    Q       H        Q     
--10-------------|--8--------10----|--6--------------|----------------|
-----------------|-----------------|-------8---------|----------------|
-----------------|-----------------|------------7----|--5-------------|
-----------------|-----------------|-----------------|----------------|
-----------------|-----------------|-----------------|----------------|
-----------------|-----------------|-----------------|----------------|


  Q    Q    Q       H        Q       H        Q               H        Q     
-----------------|--2--------5----|--3-------------|-------|--5-------------|
--1----3----4----|----------------|----------------|-------|----------------|
-----------------|----------------|----------------|-------|----------------|
-----------------|----------------|----------------|-------|----------------|
-----------------|----------------|----------------|-------|----------------|
-----------------|----------------|----------------|-------|----------------|


  H        E  E     H        Q        H        Q        Q    Q     Q     
--5--------3--5--|--6--------8----|--10-------------|--10----8----------|
-----------------|----------------|-----------------|-------------11----|
-----------------|----------------|-----------------|-------------------|
-----------------|----------------|-----------------|-------------------|
-----------------|----------------|-----------------|-------------------|
-----------------|----------------|-----------------|-------------------|


   Q    Q     Q       H        Q       H        Q       H        Q     
--10----8----------|--5--------6----|--5-------------|--5-------------|
-------------11----|----------------|----------------|----------------|
-------------------|----------------|----------------|----------------|
-------------------|----------------|----------------|----------------|
-------------------|----------------|----------------|----------------|
-------------------|----------------|----------------|----------------|


  H        E  E     H        Q        Q     Q     Q             
--5--------3--5--|--6--------8----|--10----11----10----|-------|
-----------------|----------------|--------------------|-------|
-----------------|----------------|--------------------|-------|
-----------------|----------------|--------------------|-------|
-----------------|----------------|--------------------|-------|
-----------------|----------------|--------------------|-------|


  Q     Q    Q       Q    Q    Q                        
-------10----8----|--6----5---------|--------||-------||
--8---------------|------------9----|--------||-------||
------------------|-----------------|-------*||-------||
------------------|-----------------|-------*||-------||
------------------|-----------------|--------||-------||
------------------|-----------------|--------||-------||






------------SECOND GUITAR------------Spool of Thread                                

Track 2
     Q     Q     Q       Q    Q    Q       Q     Q     Q       Q    Q    Q     
E||-------10----10----|-------5----5----|-------10----10----|-------5----5----|
B||--8----------------|--3--------------|--8----------------|--3--------------|
G||--0-----7-----7----|-------2----2----|--0-----7-----7----|-------2----2----|
D||-------------------|--0--------------|-------------------|--0--------------|
A||-------------------|-----------------|-------------------|-----------------|
E||-------------------|-----------------|-------------------|-----------------|


  Q     Q     Q       Q    Q    Q       Q     Q     Q       Q    Q    Q     
-------10----10----|-------5----5----|-------10----10----|-------5----5----|
--8----------------|--3--------------|--8----------------|--3--------------|
--0-----7-----7----|-------2----2----|--0-----7-----7----|-------2----2----|
-------------------|--0--------------|-------------------|--0--------------|
-------------------|-----------------|-------------------|-----------------|
-------------------|-----------------|-------------------|-----------------|


  Q     Q     Q       Q    Q    Q       Q     Q     Q       Q    Q    Q     
-------10----10----|-------5----5----|-------10----10----|-----------------|
--8----------------|--3--------------|--8----------------|--3----4----6----|
--0-----7-----7----|-------2----2----|--0-----7-----7----|-----------------|
-------------------|--0--------------|-------------------|--3----4----6----|
-------------------|-----------------|-------------------|-----------------|
-------------------|-----------------|-------------------|-----------------|


  Q     Q     Q       Q    Q    Q       Q     Q     Q       Q    Q    Q     
-------10----10----|-------5----5----|-------10----10----|-------5----5----|
--8----------------|--3--------------|--8----------------|--3--------------|
--0-----7-----7----|-------2----2----|--0-----7-----7----|-------2----2----|
-------------------|--0--------------|-------------------|--0--------------|
-------------------|-----------------|-------------------|-----------------|
-------------------|-----------------|-------------------|-----------------|


  Q    Q    Q       H        Q       Q    Q    Q       Q    H         
-----------------|----------------|-----------------|----------------|
-----------------|----------------|-------3----3----|--3-------------|
-----------------|-----------2----|--0--------------|----------------|
-------0----1----|--4-------------|-------0----0----|--0-------------|
--3--------------|----------------|-----------------|----------------|
-----------------|----------------|-----------------|----------------|


  Q     Q     Q       Q    Q    Q       Q     Q     Q       Q    Q    Q     
-------10----10----|-------5----5----|-------10----10----|-------5----5----|
--8----------------|--3--------------|--8----------------|--3--------------|
--0-----7-----7----|-------2----2----|--0-----7-----7----|-------2----2----|
-------------------|--0--------------|-------------------|--0--------------|
-------------------|-----------------|-------------------|-----------------|
-------------------|-----------------|-------------------|-----------------|


  Q     Q     Q       Q    Q    Q       Q     Q     Q       Q    Q    Q     
-------10----10----|-------5----5----|-------10----10----|-------5----5----|
--8----------------|--3--------------|--8----------------|--3--------------|
--0-----7-----7----|-------2----2----|--0-----7-----7----|-------2----2----|
-------------------|--0--------------|-------------------|--0--------------|
-------------------|-----------------|-------------------|-----------------|
-------------------|-----------------|-------------------|-----------------|


  Q     Q     Q       Q    Q    Q       Q     Q     Q       Q    Q    Q     
-------10----10----|-------5----5----|-------10----10----|-------5----5----|
--8----------------|--3--------------|--8----------------|--3--------------|
--0-----7-----7----|-------2----2----|--0-----7-----7----|-------2----2----|
-------------------|--0--------------|-------------------|--0--------------|
-------------------|-----------------|-------------------|-----------------|
-------------------|-----------------|-------------------|-----------------|


  Q    Q    Q       H        Q       Q    Q    Q       Q    H         
-----------------|----------------|-----------------|----------------|
-----------------|----------------|-------3----3----|--3-------------|
-----------------|-----------2----|--0--------------|----------------|
-------0----1----|--4-------------|-------0----0----|--0-------------|
--3--------------|----------------|-----------------|----------------|
-----------------|----------------|-----------------|----------------|


  Q    Q    Q       Q    Q    Q       Q    Q    Q       Q    Q    Q     
-----------------|-----------------|-----------------|-----------------|
-----------------|-----------------|-----------------|-----------------|
------------0----|------------0----|------------2----|------------2----|
-------1---------|-------1---------|-------4---------|-------4---------|
--3--------------|--3--------------|--5--------------|--5--------------|
-----------------|-----------------|-----------------|-----------------|


  Q    Q    Q       Q    Q    Q       Q    Q    Q       Q    Q    Q     
-----------------|-----------------|-----------------|-----------------|
-----------------|-----------------|-----------------|-----------------|
------------3----|------------3----|------------2----|------------2----|
-------5---------|-------5---------|-------4---------|-------4---------|
--6--------------|--6--------------|--5--------------|--5--------------|
-----------------|-----------------|-----------------|-----------------|


  Q    Q    Q       Q    Q    Q       Q    Q    Q       H        Q     
-----------------|-----------------|-----------------|--3-------------|
-----------------|-----------------|-----------------|--3-------------|
------------0----|------------0----|------------2----|----------------|
-------1---------|-------1---------|-------4---------|----------------|
--3--------------|--3--------------|--5--------------|----------------|
-----------------|-----------------|-----------------|----------------|


  H        Q       Q    Q    Q       Q    Q    Q                        
----------------|-----------------|-----------------|--------||-------||
----------------|-------3----1----|-----------------|--------||-------||
----------------|--0--------------|--3----2----1----|-------*||-------||
----------------|--0----0---------|-----------------|-------*||-------||
----------------|------------3----|--1----0---------|--------||-------||
----------------|-----------------|------------4----|--------||-------||




Duration Legend
---------------
W - whole
H - half
Q - quarter
E - 8th
S - 16th
T - 32nd
X - 64th
. - note dotted
|-n-|  - n-tuplets
        
Comments

@Derevex (May 12, 2013 at 9:43 PM)

There's a "hidden" easier backing track in the GP5 file. I forgot to mention that :)