Gametabs
Home
Tabs
Random

SUNNY SPOT

Average rating: No ratings

Composer:

Tabber:

Style:

Instrument:

Created: October 27, 2011 at 12:00 AM

            SUNNY SPOT
Lux-Pain
Composed by Yasuyuki Suzuki
Tabbed by Kiku
2011-10-27

BPM: 88

You don't know this song, but who knows? Just listen to it and you just might like it~

mp3 included in the tab download, remember to tune to Drop D and put a capo on the 5th fret.


                                  SUNNY SPOT                                    


Guitar 1 (DADGBE Tuning (Drop D) Capo 5)
      E  E  E  E  E  E  Q       E  E  E  E  E  E  E  E   
E||--------------------------|--------------------------|
B||------------0--2----------|--0--------2-----------4--|
G||*--------2-----------2----|--------------------------|
D||*-----2-----------2-------|-----1--4--------1--4-----|
A||---0-----------0----------|--0-----------0-----------|
D||--------------------------|--------------------------|


                                         ^    ^       ^                 
  E  E  E  E  E  E  E  E     E  E  E  E  Q    Q       W                 
--------------------------|------------------------|-------------------|
--------3-----------------|------------------------|--0----------------|
-----------2--------------|--------------1---------|-------------------|
-----4--------------0-----|--------0--3--2----2----|--1----------------|
--2--------------------0--|-----2--------4----0----|--0----------------|
--------------0--4--------|--3-----------4----2----|--1----------------|


  E  E  E  E  E  E  E  E     E  E  E  E  E  E  E  E   
--------------------------|-----------0-----------0--|
--------------------------|--------------------------|
--------------------1-----|--------4-----------4-----|
--------4--0-----------0--|-----2-----------2--------|
-----0-----------2--------|--0-----------0-----------|
--0-----------2-----------|--------------------------|


  E  E  E  E  E  E  E  E     E  E  E  E  E  E  E  E   
--------1--0--------0-----|--------------0-----------|
-----------------------3--|--------2-----------2-----|
-----2-----------2--------|-----------2-----------2--|
--0-----------0-----------|-----2-----------2--------|
--------------------------|--0-----------------------|
--------------------------|--------------------------|


  E  E  E  E  E  E  E  E     E  E  E  E  E  E  E  E   
--------1--0--------0-----|--------------0-----------|
-----------------------3--|--------2-----------2-----|
-----2-----------2--------|-----------2-----------2--|
--0-----------0-----------|-----2-----------2--------|
--------------------------|--0-----------------------|
--------------------------|--------------------------|


  E  E  E  E  E  E  E  E     E  E  E  E  E  E  E  E   
--------0-----5-----------|-----------4--------------|
--------------------------|--------5-----------------|
-----2-----2-----2-----2--|-----------------------3--|
--0-----------------0-----|-----6--------------2-----|
--------------------------|--4--------------4--------|
--------------------------|--------------4-----------|


                                         ^    ^       
  E  E  E  E  E  E  E  E     E  E  E  E  Q    Q       
--------------------------|--------------4----------||
-----------3--------------|--------------5----6-----||
--------2--------------2--|--------------4----5----*||
-----4--------------2-----|-----------4--0----0----*||
--2--------------2--------|-----0--4----------------||
--------------2-----------|--0----------------------||



Guitar 2 (DADGBE Tuning (Drop D) Capo 5)
      E  E  E  E  Q.     E     H        H           E.  S E  E  Q.     E   
E||----------------------4--|--2-----------------|------------------------|
B||------2--2--3--5---------|-----------0--------|--L-----0--2--3---------|
G||*------------------------|--------------------|---------------------2--|
D||*---------------------2--|--1--------4--------|--------0--2--4---------|
A||------0--0--2--4---------|--------------------|------------------------|
D||-------------------------|--------------------|------------------------|


  Q.     E  Q    E  E     H.           E  E     Q    E  E  E  Q    E   
-----------------------|---------------------|-------0----------------|
---------3--2----------|---------------0--2--|--3-------3--0-------0--|
--1--------------2--1--|---------------------|----------------1-------|
--0---------2----------|--4------------1--4--|--4----------2----------|
-----------------4-----|--6------------------|------------------------|
-----------------------|---------------------|------------------------|


  H        H           E  E  E  E  E  E  E  E     Q    Q    Q    Q     
--------------------|--------------------------|----------------------|
--0-----------------|-----------0-----3--2--0--|--2-------------------|
-----------2--------|--2-----2-----------------|-------2---------2----|
--2-----------------|--3--3--3--0--L-----------|--2---------2---------|
-----------4--------|-----5--------------------|-------4----0----4----|
--------------------|--------------------------|----------------------|


  E  E  E  E  E  E  E  E     Q    Q    Q    Q       Q.     E  Q    E  E   
--------------------------|-----------------0----|--4------2--0----------|
-----------0-----3--2--0--|--2---------2---------|--5--------------2--3--|
--2-----2-----------------|-------2---------2----|-----------------------|
--3--3--3--0--L-----------|--2---------2---------|--2------0-------------|
-----5--------------------|-------4--------------|------------4----0--2--|
--------------------------|----------------------|-----------------------|


  Q    Q    Q    E  E     Q    Q    Q    Q       H        H           
--0--------------------|----------------------|---------------------||
-------2------------2--|--3--------------0----|--2--------0---------||
------------3----4-----|------------2---------|--------------------*||
-------2----4----------|--4----4---------0----|--2--------2--------*||
--4--------------------|-------0----4---------|---------------------||
-----------------------|----------------------|---------------------||




Duration Legend
---------------
W - whole
H - half
Q - quarter
E - 8th
S - 16th
T - 32nd
X - 64th
. - note dotted
|-n-|  - n-tuplets


Tablature Legend
----------------
L - tied note
x - dead note
g - grace note
(n) - ghost note
> - accentuded note
NH - natural harmonic
AH - artificial harmonic
TH - tapped harmonic
SH - semi harmonic
PH - pitch harmonic
h - hammer on
p - pull off
b - bend
br - bendRelease
pb - preBend
pbr - preBendRelease
brb - bendReleaseBend
\n/ - tremolo bar dip
\n - tremolo bar dive
-/n - tremolo bar Release up
/n\ - tremolo bar inverted dip
/n - tremolo bar return
-\n - tremolo bar Release down
S - shift slide
s - legato slide
/ -  slide into from below or out of upwards
\ -  slide into from above or out of downwards
~ - vibrato
W - wide vibrato
tr - trill
TP - tremolo picking
T - tapping
S - slap
P - pop
< - fade in
^ - brush up
v - brush down
        
Comments

No comments yet