Gametabs
Home
Tabs
Random

The Mansion

Average rating: 4.667

30 ratings

Composer:

Tabber:

Style:

Instrument:

Created: August 05, 2008 at 12:00 AM

            Hey this is the song they play in the mansion for the gamecube game luigis mansion.
Tabber: TC
Date Tabbed: Aug 3, 2008
Original Composer: Kazumi Totaka, Shinobu Tanaka
Release date: Nov. 18, 2001




e -------------------
b -------------------
g -------------------
d ----------2-1--2---
a --0----0-----------
e -------------------


| -------------------------------------------------
| -------------------------------------------------
| -------------------------------------------------
| --2-2-2-2---2-1-----------0-0-0-0---0------------
| ----------3-----2-----------------2---3--1-2-----
| ---------------------------------------------0---


| -------------------------------------------------
| -------------------------------------------------
| -------------------------------------------------
| --2-2-2-2---2-1----------0-0-0-0---0-2-0---------
| ----------3-----2----------------3-------3-2-0---
| ------------------------------------------------4


| ----------------------0--------------------------
| ---------------1--0-4---4-3--2-3-2-1--0-1-0-----4
| ------------2--------------------------------3---
| -------0-2---------------------------------------
| -0-2-3-------------------------------------------
| -------------------------------------------------


| -0----------------
| ---0---0----------
| -----3------------
| ---------2---2---2
| ------------------
| ------------------


        
Comments

@Bambi (August 06, 2008 at 1:32 PM)

Sounds great.


@darkarmy123 (August 17, 2008 at 11:20 PM)

Nice job.


@silverrida (September 21, 2008 at 2:54 AM)

Good transcription. This song gets stuck in my head soo easily


@Gamekiller157 (October 14, 2008 at 2:38 PM)

sweet


@DarkHedge (February 06, 2009 at 5:13 AM)

Luigi rules! "D So does the tab


@hellucard (February 07, 2009 at 12:32 AM)

Good Job!! it is sure perfect!


@superheshe (May 25, 2009 at 2:51 PM)

This is super cool and stuck in my head lol ive been looking at your tabs for months and only just made an account xD


@LionHeartGael (September 06, 2009 at 3:17 AM)

cool


@TOMMYGUN1352 (November 21, 2009 at 3:21 AM)

good except in line 4 the open on the e string should be a 4 and in line 5, the 3rd 4 on the b string should be a 3


@suciune (January 13, 2010 at 12:14 PM)

on the bridge is 3 not 4 the secoond 4 sould be a 3

| ---------------1--0-4---4-3--2-4-2-1--0-1-0---4- this part it should go ------------1--0---4---4-2-3-2-1--0-1-0---4