Gametabs
Home
Tabs
Random

Main Theme (CSGuitar89 Version)

Average rating: 4.500

4 ratings

Composer:

Tabber:

Style:

Instrument:

Created: February 15, 2012 at 12:00 AM

            Standard tuning
This is from Csguitar89's Luigis mansion video.

Tab starts at 1:29 in the video

E|------------------------------------------------------|
B|---1----1----1----1-----0----0----0----0--------------|
G|----------------------------------------------2----1--|
D|--2-2--2-2--2-2--2-2---1-1--1-1--0-0--0-0---------0-1-|
A|-0----0----0----0-----0----0----0----0-----0-3-3-2----|
E|------------------------------------------------------|

E|-----------------------------------------------------------|
B|---1----1----0----0----0----0--5-3-1-----1----1----1-----1-|
G|-------------------------------4-2-1-4------------------2--|
D|--2-2--2-2--1-1--1-1--0-0--0-0-------2--2-2--2-2--2-2--2---|
A|-0----0----0----0----0----0------------0----0----0----0----|
E|-----------------------------------------------------------|

E|-----------------------11-12-11-10--9-10-9-8--7-8-7-6-----------0-0-0-|
B|------------------------------------------------------4-5-------------|
G|-----------------5---4------------------------------------4-3-4-1-1-1-|
D|-------------7--7---6-------------------------------------------2-2-2-|
A|---------5-7---7---7--------------------------------------------------|
E|-4-5-7-8--------------------------------------------------------------|

Harmony
E|-------------5-8-7----------------------------------------------|
B|-----------5--------9-10-9-8--8-9-8-7--6-7-6-5------------------|
G|-----4-5-7------------------------------------------------------|
D|-6-7--------------------------------------------1-2-------------|
A|----------------------------------------------------2-1-2-------|
E|----------------------------------------------------------0-0-0-|
        
Comments

@Link Strife07 (February 17, 2012 at 2:28 PM)

You know he has tabs for all of his songs on his website. His website But good tab anyways :)