Gametabs
Home
Tabs
Random

Lufia's Theme

Average rating: 3.500

2 ratings

Composer:

Tabber:

Style:

Instrument:

Created: August 04, 2008 at 12:00 AM

            Lufia & The Fortress of Doom
Lufia's Theme

SNES 1993 (Taito)
Tabbed by: Kinerdar (www.kinerdar.at) in July 2008


e -----------------------------------------
H ---------------------3-------3-3-3-4-----
G -------3-5---3-----5---5-3-----------0---
D ---0-3-----------------------------------
A -----------------------------------------
E -----------------------------------------


e -----------------------------------------
H --------------------4-4-3---------3------
G ---3-3-2-0-2--------------3-5-5-5---5-3--
D --------------3--------------------------
A -----------------------------------------
E -----------------------------------------

        
Comments

No comments yet