Gametabs
Home
Tabs
Random

Town Theme

Average rating: No ratings

Composer:

Tabber:

Style:

Instrument:

Created: October 28, 2009 at 12:00 AM

            Town Theme                                    
Lufia 2 - Rise of the Sinistrals
Composed by Yasunori Shiono
Arranged by Styx01x


     E  E  Q    E  E  E  E     W                   E  E  Q    E  E  E  E   
E||-------------------------|-------------------|----------------------2--|
B||--------0----0--5--4--5--|-------------------|--------2----2--4--5-----|
G||--1--2--1-------4--------|--6----------------|--2--4--2-------4--------|
D||--2-----2-------6--------|--7----------------|--4-----4----------------|
A||-------------------------|--7----------------|-------------------------|
E||-------------------------|-------------------|-------------------------|


  W                   E  E  Q    E  E  E  E     E  E  E  E  H         
-------------------|-------------------------|--2--------------------|
--4----------------|--------4----4--------4--|--2--5--4--5--2--------|
--4----------------|--5--6--5-------5--6-----|--------5-----2--------|
--4----------------|--6-----6-------6--------|--------------4--------|
-------------------|-------------------------|-----------------------|
-------------------|-------------------------|-----------------------|


  E  E  Q    E  E  E  E     H        H           E  E  Q    E  E  E  E   
-------------------------|-----------2--------|-------------------------|
--------2----2--------2--|--4--------4--------|--------0----0--5--4--5--|
--2--4--2-------2--4-----|--4--------4--------|--1--2--1-------4--------|
--4-----4-------4--------|--------------------|--2-----2-------6--------|
-------------------------|--------------------|-------------------------|
-------------------------|--------------------|-------------------------|


  W                   E  E  Q    E  E  E  E     W                 
-------------------|----------------------2--|-------------------|
-------------------|--------2----2--4--5-----|--4----------------|
--6----------------|--2--4--2-------4--------|--4----------------|
--7----------------|--4-----4----------------|--4----------------|
--7----------------|-------------------------|-------------------|
-------------------|-------------------------|-------------------|


  E  E  Q    E  E  E  E     E  E  E  E  H           E  E  Q    E  E  E  E   
-------------------------|--2--------------------|-------------------------|
--------4----4--------4--|--2--5--4--5--2--------|--------2----2--------2--|
--5--6--5-------5--6-----|--------5-----2--------|--2--4--2-------2--4-----|
--6-----6-------6--------|--------------4--------|--4-----4-------4--------|
-------------------------|-----------------------|-------------------------|
-------------------------|-----------------------|-------------------------|


  H        H           H        H           W                 
-----------0--------|-----------2--------|-------------------|
--------------------|--4--------4--------|--5----------------|
--2--------2--------|--4--------4--------|--4----------------|
--2--------2--------|--7--------7--------|--7----------------|
--------------------|--------------------|-------------------|
--------------------|--------------------|-------------------|


  H        Q    E  E     Q    Q    Q    Q       H        Q    E  E   
----------------------|----------------------|-------------------0--|
--5--------L-------5--|--4-------------------|----------------------|
--4--------L----4-----|--4----6----4---------|--2-------------4-----|
--6--------L----------|--7----7----7----7----|--4--------6----6-----|
----------------------|----------------------|-----------7----------|
----------------------|----------------------|----------------------|


  Q    Q    Q    Q       H        Q    E  E     Q    E  E  Q    E  E   
----------------------|----------------------|------------------------|
--4-------------------|----------------------|------------------------|
--4----6----4---------|--2-------------------|------------------------|
--7----7----7----7----|--4--------6-------4--|--6-------4--6----2--4--|
----------------------|-----------7----7-----|--4----7-----3----4-----|
----------------------|----------------------|------------------------|


  Q    Q    H            Q    Q     Q    Q       H        H         
------------4--------|--12----9---------------|-----------2--------|
------------5--------|--14---------10----7----|--4--------4--------|
-------4-------------|--14--------------------|--4--------4--------|
--6----6----6--------|--14--------------------|--------------------|
--7----7-------------|------------------------|--------------------|
--0------------------|------------------------|--------------------|


  ^                  
  W                  
--0----------------||
--0----------------||
--1----------------||
--2----------------||
--2----------------||
--0----------------||




Duration Legend
---------------
W - whole
H - half
Q - quarter
E - 8th
S - 16th
T - 32nd
X - 64th
. - note dotted
|-n-|  - n-tuplets

        
Comments

No comments yet