Gametabs
Home
Tabs
Random

Opening Motif

Average rating: No ratings

Composer:

Tabber:

Style:

Instrument:

Created: February 08, 2009 at 12:00 AM

                             Lufia II - Opening Motif GUITAR + BASS TAB
                          Song by Yasunori Shiono

                  Tabbed by auriplane ([email protected])

This is my transcription.  I also did an arrangement, as one of my first solo
guitar arrangements.  It's not the best, but hey.

Here's the guitar part, and the bass part will be further down, in four- and
five-string versions.  Either way, you'll have to tune your bass about 40 
cents flat to match the SNES (that's 2/5ths of the way to the next note down, 
or A=430Hz).  Though I prefer to play the song at A=440 if I'm not playing
with the SNES.

                     FIRST GUITAR

e |--------0-------|--------0---5-3-|
B |----3-------3---|----3-----------|
G |--2---2---2---2-|--2---2---2-----|
D |0---------------|0---------------|
A |----------------|----------------|
E |----------------|----------------|

e |--------0-------|--------0-------|----------------|--------0-------|
B |----3-------3---|----2-------2---|--------3-------|----3-------3---|
G |--2---2---2---2-|--2---2---2---2-|----5-------5---|--2---2---2---2-|
D |0---------------|----------------|--5---5---5---5-|0---------------|
A |----------------|4---------------|3---------------|----------------|
E |----------------|----------------|----------------|----------------|

e |--------0-------|--------0-------|----------------|--------0-------|
B |----3-------3---|----2-------2---|--------3-------|----3-------3---|
G |--2---2---2---2-|--2---2---2---2-|----5-------5---|--2---2---2---2-|
D |0---------------|----------------|--5---5---5---5-|0---------------|
A |----------------|4---------------|3---------------|----------------|
E |----------------|----------------|----------------|----------------|

e |----------------|
B |----3-------1---|
G |--2---2---0---0-|
D |0---------------|
A |--------3-------|
E |----------------|

e |----------------|--------0-------|--------2-------|--------0---5-3-|
B |--------3-------|----1-------1---|----3-------3---|----3-----------|
G |----3-----3---3-|--0---0---0---0-|--2---2---2---2-|--2---2---2-----|
D |--3---3-----3---|----------------|0---------------|0---------------|
A |1---------------|3---------------|----------------|----------------|
E |----------------|----------------|----------------|----------------|

e |----------------|--------0-------|--------2-------|----------------|
B |--------3-------|----1-------1---|----3-------3---|----3-------3-1-|
G |----3-----3---3-|--0---0---0---0-|--2---2---2---2-|--2---2---2-----|
D |--3---3-----3---|----------------|0---------------|0-------0-------|
A |1---------------|3---------------|----------------|----------------|
E |----------------|----------------|----------------|----------------|

e |----------------|--------0-------|--------2-------|--------0---5-3-|
B |--------3-------|----1-------1---|----3-------3---|----3-----------|
G |----3-----3---3-|--0---0---0---0-|--2---2---2---2-|--2---2---2-----|
D |--3---3-----3---|----------------|0---------------|0---------------|
A |1---------------|3---------------|----------------|----------------|
E |----------------|----------------|----------------|----------------|

e |----------------|--------0-------|--------2---5-3-|----5-----------|
B |--------3-------|----1-------1---|----3-----------|---3------------|
G |----3-----3---3-|--0---0---0---0-|--2---2---2-----|--2-------------|
D |--3---3-----3---|----------------|0---------------|-4--------------|
A |1---------------|3---------------|----------------|5---------------|
E |----------------|----------------|----------------|----------------|

                     SECOND GUITAR

e |----------------|----------------|
B |----------------|----------------|
G |----------------|----------------|
D |----------------|----------------|
A |----------------|----------------|
E |----------------|----------------|

e |----------------|0-----------0-2-|3---------3-5-3-|235-------------|
B |--------------3-|----------------|----------------|----------------|
G |----------0-2-2-|2---------------|----------------|----------------|
D |4---------2-4---|--------2-------|2---------2-4-2-|024-------------|
A |5---------------|----------------|----------------|----------------|
E |----------------|----------------|----------------|----------------|

e |----------------|0-----------0-2-|3---------3-2-0-|20--------------|
B |--------------3-|----------------|----------------|--3-------------|
G |----------0-2-2-|2---------------|----------------|20--------------|
D |4---------2-4---|--------2-------|2---------2-4-2-|--4-------------|
A |5---------------|----------------|----------------|----------------|
E |----------------|----------------|----------------|----------------|

e |----------------|
B |----------------|
G |----------------|
D |----------------|
A |----------------|
E |----------------|

e |----------------|----------------|----------------|235-------------|
B |------------3---|----------------|----------------|----------------|
G |----------3-3---|----------------|----------------|----------------|
D |3---------3---3-|5-----------3-2-|457-------------|024-------------|
A |5-------------5-|7-----------5-3-|579-------------|----------------|
E |----------------|----------------|----------------|----------------|

e |----------------|----------------|----------------|----------------|
B |------------3---|----------------|----------------|----------------|
G |----------3-3---|----------------|----------------|----------------|
D |3---------3---3-|5-----------3-2-|0---------------|----------------|
A |5-------------5-|7-----------5-3-|0---------------|----------------|
E |----------------|----------------|----------------|----------------|

e |----------------|----------------|----------------|235-------------|
B |------------3---|----------------|----------------|----------------|
G |----------3-3---|----------------|----------------|----------------|
D |3---------3---3-|5-----------3-2-|457-------------|024-------------|
A |5-------------5-|7-----------5-3-|579-------------|----------------|
E |----------------|----------------|----------------|----------------|

e |----------------|----------------|----------------|----------------|
B |------------3---|----------------|----------------|3---------------|
G |----------3-3---|----------------|----------------|----------------|
D |3---------3---3-|5-----------3-2-|0---------------|----------------|
A |5-------------5-|7-----------5-3-|0---------------|----------------|
E |----------------|----------------|----------------|----------------|


                     BASS - FOUR-STRING VERSION (DROP-D TUNING)

   H       Q.    E  H       Q   Q  
G |----------------|----------------|
D |----------------|----------------|
A |5-------L-----0-|5-------L---0---|
D |----------------|----------------|
                                    
   H       Q.    E  H       Q   Q    H       Q.    E  H       Q   Q  
G |----------------|----------------|----------------|----------------|
D |----------------|----------------|----------------|----------------|
A |5-------L-----0-|4-------L---0---|3-------L-------|5-------L---0---|
D |----------------|----------------|--------------5-|----------------|
                                                                      
   H       Q.    E  H       Q   Q    H       Q.    E  H       Q   Q  
G |----------------|----------------|----------------|----------------|
D |----------------|----------------|----------------|----------------|
A |5-------L-----0-|4-------L---0---|3-------L-------|5-------L---0---|
D |----------------|----------------|--------------5-|----------------|
                                                                      
   H       H
G |----------------|
D |----------------|
A |5-------3-------|
D |----------------|
                                                                      
   H       Q.    E  H       Q   Q    H       Q.    E  H       Q   Q  
G |----------------|----------------|----------------|----------------|
D |----------------|----------------|----------------|----------------|
A |1-------L-------|3-------L-------|5-------L-----0-|5-------L---3---|
D |--------------3-|------------5---|----------------|----------------|
                                                                      
   H       Q.    E  H       Q   Q    H       Q.    E  H       Q   E E
G |----------------|----------------|----------------|----------------|
D |----------------|----------------|----------------|----------------|
A |1-------L-------|3-------L-------|5-------L-----0-|5-------L---5-3-|
D |--------------3-|------------5---|----------------|----------------|
                                                                      
   H       Q.    E  H       Q   Q    H       Q.    E  H       Q   Q  
G |----------------|----------------|----------------|----------------|
D |----------------|----------------|----------------|----------------|
A |1-------L-------|3-------L-------|5-------L-----0-|5-------L---3---|
D |--------------3-|------------5---|----------------|----------------|
                                                                      
   H       Q.    E  H       Q   Q    H       Q.    E  W
G |----------------|----------------|----------------|----------------|
D |----------------|----------------|----------------|----------------|
A |1---------------|3---------------|5---------------|----------------|
D |--------------3-|------------5---|--------------7-|0---------------|
                                                                     
                                                                     
                           FIVE-STRING VERSION 

   H       Q.    E  H       Q   Q  
G |----------------|----------------|
D |----------------|----------------|
A |5-------L-------|5-------L-------|
E |--------------5-|------------5---|
B |----------------|----------------|
                                    
   H       Q.    E  H       Q   Q    H       Q.    E  H       Q   Q  
G |----------------|----------------|----------------|----------------|
D |----------------|----------------|----------------|----------------|
A |5-------L-------|4-------L-------|3-------L-------|5-------L-------|
E |--------------5-|------------5---|--------------3-|------------5---|
B |----------------|----------------|----------------|----------------|
                                                                      
   H       Q.    E  H       Q   Q    H       Q.    E  H       Q   Q  
G |----------------|----------------|----------------|----------------|
D |----------------|----------------|----------------|----------------|
A |5-------L-------|4-------L-------|3-------L-------|5-------L-------|
E |--------------5-|------------5---|--------------3-|------------5---|
B |----------------|----------------|----------------|----------------|
                                                                      
   H       H
G |----------------|
D |----------------|
A |5-------3-------|
E |----------------|
B |----------------|
                                                                      
   H       Q.    E  H       Q   Q    H       Q.    E  H       Q   Q  
G |----------------|----------------|----------------|----------------|
D |----------------|----------------|----------------|----------------|
A |----------------|3-------L-------|5-------L-------|5-------L---3---|
E |6-------L-------|------------3---|--------------5-|----------------|
B |--------------6-|----------------|----------------|----------------|
                                                                      
   H       Q.    E  H       Q   Q    H       Q.    E  H       Q   E E
G |----------------|----------------|----------------|----------------|
D |----------------|----------------|----------------|----------------|
A |----------------|3-------L-------|5-------L-------|5-------L---5-3-|
E |6-------L-------|------------3---|--------------5-|----------------|
B |--------------6-|----------------|----------------|----------------|
                                                                      
   H       Q.    E  H       Q   Q    H       Q.    E  H       Q   Q  
G |----------------|----------------|----------------|----------------|
D |----------------|----------------|----------------|----------------|
A |----------------|3-------L-------|5-------L-------|5-------L---3---|
E |6-------L-------|------------3---|--------------5-|----------------|
B |--------------6-|----------------|----------------|----------------|
                                                                      
   H       Q.    E  H       Q   Q    H       Q.    E  W
G |----------------|----------------|----------------|----------------|
D |----------------|----------------|----------------|----------------|
A |----------------|3---------------|5---------------|----------------|
E |6---------------|------------3---|--------------5-|----------------|
B |--------------6-|----------------|----------------|3---------------|
                                                                     
        
Comments

No comments yet