Gametabs
Home
Tabs
Random

Sleep Forever

Average rating: 4.000

1 ratings

Composer:

Tabber:

Style:

Instrument:

Created: July 03, 2013 at 12:00 AM

            Sleep Forever
Lone Survivor
Composer: Jasper Byrne
Tabbed by: Wander 
Tabbed on: 6/24/13

Intro:
0:00 to 0:21
Rhythm figure 1:
Eb---------------
Bb---------------
Gb---2------2----
Db--2-2x4--2-2x4-
Ab-0------5------
Eb---------------

Lead Guitar
Eb----19---17~
Bb------------
Gb------------
Db------------
Ab------------
Eb------------

Rhythm figure 2:
0:21 to 0:42
Eb--------------------------------------------------
Bb-----2-----------2-----------0-----------0--3-----
Gb----2---2-------2---2-------2--2--------2--2------
Db---2-------2---2-------2---2------2----2-----2----
Ab--0-----------0-----------5-----------5-----------
Eb--------------------------------------------------

Rhyhm figure 3:
(Rhythm figure 2 plays in the background)
    V^     V^
Eb------------------
Bb---22----33-------
Gb---22----22-------
Db--222x4-222x4-----
Ab-0-00--0-00-------
Eb------------------

Lead Figure 2:
(play each note 8 times)
1:04 to 1:42
Eb-10/9/7/5/3/2/3/5/7/9/10/12/14/15/17/17~\0~~~~~~~19~
Bb----------------------------------------------------
Gb----------------------------------------------------
Db----------------------------------------------------
Ab----------------------------------------------------
Eb----------------------------------------------------


Legend:
~ = let the note ring out
/ = slide
V = downstrum
^ = upstrum
        
Comments

No comments yet