Gametabs
Home
Tabs
Random

Sancho de Los Panchos

Average rating: No ratings

Composer:

Tabber:

Style:

Instrument:

Created: July 16, 2008 at 12:00 AM

            Live A Live - Sancho De Los Panchos
Composed By: Yoko Shimomura
Tabbed By: Luminaire271

4/4

Bass (E A D G) 

  E.  S E.  S E.  S E.  S   E.  S E.  S E.  S E.  S   E.  S E.  S E.  S E.  S
|-------------------------|-------------------------|-------------------------|
|-------2---2-------2---2-|-------2---2-------2---2-|-------2---2-------2---2-|
|-0---0-------0---0-------|-0---0-------0---0-------|-0---0-------0---0-------|
|-------------------------|-------------------------|-------------------------|


  E.  S E.  S E.  S E.  S   E.  S E.  S E.  S E.  S   E.  S E.  S E.  S E.  S
|-------------------------|-------2---2-------2---2-|-------2---2-------2---2--|
|-------2---2-------2---2-|-0---0-------0---0-------|-0---0-------0---0--------|
|-0---0-------0---0-------|-------------------------|--------------------------|
|-------------------------|-------------------------|--------------------------|


  E.  S E.  S E.  S E.  S   E.  S E.  S E.  S E.  S   E.  S E.  S E.  S E.  S
|-------------------------|-------------------------|--------------------------|
|-------------------------|-------------------------|-------5---5-------5---5--|
|-------5---5-------5---5-|-------5---5-------5---5-|-3---3-------3---3--------|
|-3---3-------3---3-------|-3---3-------3---3-------|--------------------------|


  Q  Q  Q    E S S   E.  S E.  S E.  S E.  S   E.  S E.  S E.  S E.  S
|------------------|-------------------------|-------------------------|
|----0-------------|-------2---2-------2---2-|-------2---2-------2---2-|
|-------3----2---2-|-0---0-------0---0-------|-0---0-------0---0-------|
|-0----------------|-------------------------|-------------------------|


  E.  S E.  S E.  S E.  S   E.  S E.  S E.  S E.  S   H.         S S
|-------2---2-------2---2-|-------2---2-------2---2-|----------------|
|-0---0-------0---0-------|-0---0-------0---0-------|----------------|
|-------------------------|-------------------------|-0------------0-|
|-------------------------|-------------------------|----------------|


  H    Q.   S S   E.  S E.  S E.  S E.  S   E.  S E.  S E.  S E.  S
|---------------|-------------------------|-------------------------*|
|---------------|-------2---2-------2---2-|-------2---2-------2---2-*|
|---------------|-0---0-------0---0-------|-0---0-------0---0-------*|
|-0----4------4-|-------------------------|-------------------------*|

        
Comments

No comments yet