Gametabs
Home
Tabs
Random

Mushroom Forest

Average rating: No ratings

Composer:

Tabber:

Style:

Instrument:

Created: November 06, 2007 at 12:00 AM

                                 Game: Little Nemo and the dream master
                            Stage: stage 1 - Bass
                    Tabbed by: Jonatan Sandberg Forsgren

                                   NOTE!!! 
         Sometimes you must ignore the timing! Just listen to the song!


CONTACT:

www.myspace.com/iceclimbersrocks

[email protected]


G--------------------------|-x8--------------------------5--5--5--5-3--3--3-3-
D--------------------------|---------------5--5--5-5--5-----------------------
A--6--6--6----6--6--6-6--6-|----5--5--5--5------------------------------------
E--------------------------|--------------------------------------------------
                                                                              

G-3-------------7--7--7-7--7--------------4--4---3-|--------------------------
D----7--7--7--7---------------5--5--7--7-----------|--------------------------
A--------------------------------------------------|--6--6--6---6-6--6--6-6---
E--------------------------------------------------|--------------------------
                                                                              

G---|-x3--------------------------|---------------------------|-x4------------
A---|----------------8--8--8-8--8-|---------------------------|---------------
D-6-|----6--6--6---6--------------|--6--6--6---6-6--6--6-6--6-|---------------
E---|-----------------------------|---------------------------|---------------

        
Comments

No comments yet