Gametabs
Home
Tabs
Random

Little Busters! (Ecstasy Ver.)

Average rating: 4.000

4 ratings

Composer:

Tabber:

Style:

Instrument:

Created: October 25, 2013 at 12:00 AM

            Little Busters! (Ecstasy ver.)
Little Busters!
Jun Maeda, Rita
corntastic
23 10 2013


e-------------------------------------------------------------------------
B-----------------------7-------------------------------------------------
G-----8--9--6-------8------6----6--9----------6--6-----6--8---------------
D--9-------------9--------------------9----9--------9--------6--9---------
A-------------------------------------------------------------------------
E-------------------------------------------------------------------------

e-------------------------------------------------------------------------
B----------------------7-----7-7-----------------------7------------------
G-----8--9--6-------8-----6---------9-9--9----9-9--9----------------------
D--9-------------9---------------9---------9------------------------------
A-------------------------------------------------------------------------
E-------------------------------------------------------------------------

______________________________________________________________________________________


e----------------------------------7--------------------------------------
B--7--7b9----------------7--7b9-------10--9--7-----7----------------------
G----------------9-9---9------------------------9-----6-------------------
D------------9-9-----9----------------------------------------------------
A-------------------------------------------------------------------------
E-------------------------------------------------------------------------

e---------------7---------------------------------------------------------
B------7s9----9----10--9--10--9--7--7-9-----------------------------------
G----------------------------------------9--------------------------------
D--6-6--------------------------------------------------------------------
A-------------------------------------------------------------------------
E-------------------------------------------------------------------------

______________________________________________________________________________________


e---------6.--------------------------------------------------------------
B-----7.-----9.-----------------------------------------------------------
G--6.---------------------------------------------------------------------
D-------------------------------------------------------------------------
A-------------------------------------------------------------------------
E------------------------------------------------------------------------- x4

e-----9----7--6-------6-----------------6---------------------------------
B--7-------------7--9-----7----7-9----9-----9--7--7--6--------------------
G------------------------------------------------------6------------------
D-------------------------------------------------------------------------
A-------------------------------------------------------------------------
E-------------------------------------------------------------------------

e---------6.--------------------------------------------------------------
B-----7------9.-----------------------------------------------------------
G--6.---------------------------------------------------------------------
D-------------------------------------------------------------------------
A-------------------------------------------------------------------------
E------------------------------------------------------------------------- x4

e-----9----7--6-------6------------------6--------------------------------
B--7-------------7--9-----7----7-9--9-9-----9--7--7--6--------------------
G------------------------------------------------------6------------------
D-------------------------------------------------------------------------
A-------------------------------------------------------------------------
E-------------------------------------------------------------------------

e--------5----------------------------5-----------7--9--9-----------------
B--7--9-----9--7--5--5--7-------7--9-----9--7--5--------------------------
G--------------------------6----------------------------------------------
D-------------------------------------------------------------------------
A-------------------------------------------------------------------------
E-------------------------------------------------------------------------

______________________________________________________________________________________


e----7--------------------------------------------------------------------
B--9---9-7----------------------------------------------------------------
G-----------9--6-9-6---------------------6--------------------------------
D---------------------9--------7--9---------------------------------------
A--------------------------9---------9------------------------------------
E-------------------------------------------------------------------------

e------------------------------------------9----9-------------------------
B--7--9--7--10--9----7--7---------7---------------------------------------
G----------------------------9--------------------------------------------
D-------------------------------------------------------------------------
A-------------------------------------------------------------------------
E-------------------------------------------------------------------------

e----7--------------------------------------------------------------------
B--9---9-7----------------------------------------------------------------
G-----------9--9--6---------------------6---------------------------------
D--------------------9--------7--9----------------------------------------
A-------------------------9---------9-------------------------------------
E-------------------------------------------------------------------------

e-------------------------------------------------------------------------
B--7--9--7--10--9----7-7-----------7--------------------------------------
G------------------------9----9-------------------------------------------
D-------------------------------------------------------------------------
A-------------------------------------------------------------------------
E-------------------------------------------------------------------------

e-------------------------------------------------------------------------
B--------9.-7-------------------------------------------------------------
G-----9-------------------------------------------------------------------
D--9.---------------------------------------------------------------------
A-------------------------------------------------------------------------
E------------------------------------------------------------------------- x8

______________________________________________________________________________________


e---------6.--------------------------------------------------------------
B-----7.-----9.-----------------------------------------------------------
G--6.---------------------------------------------------------------------
D-------------------------------------------------------------------------
A-------------------------------------------------------------------------
E------------------------------------------------------------------------- x4

e-----9----7--6-------6-----------------6---------------------------------
B--7-------------7--9-----7----7-9----9-----9--7--7--6--------------------
G------------------------------------------------------6------------------
D-------------------------------------------------------------------------
A-------------------------------------------------------------------------
E-------------------------------------------------------------------------

e---------6.--------------------------------------------------------------
B-----7------9.-----------------------------------------------------------
G--6.---------------------------------------------------------------------
D-------------------------------------------------------------------------
A-------------------------------------------------------------------------
E------------------------------------------------------------------------- x4

e-----9----7--6-------6------------------6--------------------------------
B--7-------------7--9-----7----7-9--9-9-----9--7--7--6--------------------
G------------------------------------------------------6------------------
D-------------------------------------------------------------------------
A-------------------------------------------------------------------------
E-------------------------------------------------------------------------

e--------5----------------------------5-----------------------------------
B--7--9-----9--7--5--5--7-------7--9-----9--7--5--5--7--------------------
G--------------------------6----------------------------6-----------------
D-------------------------------------------------------------------------
A-------------------------------------------------------------------------
E-------------------------------------------------------------------------

e--------5----------------------------5-----------7--9--9-----------------
B--7--9-----9--7--5--5--7-------7--9-----9--7--5--------------------------
G--------------------------6----------------------------------------------
D-------------------------------------------------------------------------
A-------------------------------------------------------------------------
E-------------------------------------------------------------------------

        
Comments

@BacardiBreezer (October 26, 2013 at 4:29 AM)

I wish there was a better indicator about the timing lol but cool song anyway. I wish someone would do Incommunicable Message


@Spellbound66623 (December 06, 2013 at 3:16 AM)


@Kougeru (April 15, 2014 at 11:38 PM)

great job.