Gametabs
Home
Tabs
Random

Faraway

Average rating: 5.000

1 ratings

Composer:

Tabber:

Style:

Instrument:

Created: October 01, 2013 at 12:00 AM

            Title: Faraway / Haruka Kanata (遥か彼方)
Artist: Maeda Jun
Album: Little Busters! OST (both the VN and the anime)

Solo guitar arrangement/transcription by limchd
Dated 1/10/2013

Sources:
[1]	"ripresa" piano arrange album by Inai Keiji
	Piano score: http://key.soundslabel.com/ripresa/common/download/ripresa_gakufu.zip
	(the score's officially provided by Key Sounds Label)

[2]	Transcription by ???
	Piano score: http://sound.jp/m_maru/littlebusters/214haruka.pdf

Tempo = 64

Verse [A]
                                                        
E |--0--------0L-0--3-----2L-2--0----------------------|
B |--------3-----------------------3-----0-----3--3----|
G |--0-----------------------2-------------------------|
D |--------------------------0-------------------------|
A |--3-------------------------------------------------|
D |----------------------------------------------------|

                                                     
-----------0-----------------------------------0----|
--3-----------------0L----------------------0-------|
--2-----------------0L----------------------0-------|
--2-----------------2L----------------------2-------|
----------------------------------------------------|
----------------------------------------------------|

                                                             
--0--------0L-0--3-----2L-2--0--------------7-------|--7----|
--------3-----------------------3-----0-------------|-------|
--0-----------------------2-------------------------|--7----|
--------------------------0-------------------------|--5----|
--3-------------------------------------------------|-------|
----------------------------------------------------|-------|

                                                     
--7-----7--7L-7--------------------5L-5-------------|
-----------------8-----7L-7--8-----------8----------|
--7-----------------------7-------------------------|
----------------------------------------------------|
--10----------------------9-------------------------|
--10----------------------10------------------------|

                                                     
-----0-----2--3--2--7--5L-5-------------------------|
--0-----3-------------------------------------------|
--2-----------------------0-------------------------|
--4-----------------------2-------------------------|
--2-------------------------------------------------|
----------------------------------------------------|

                                                     
--3-----3--3L-3--3-----3--3--3--2--0--------2L------|
--1-----------------------0-----------3-----0-------|
----------------------------------------------------|
--2-----------------------0-----------------2-------|
--0-----------------------2-----------------3-------|
----------------------------------------------------|

                                                         
--2--3L----3--0-------------|----------------|-----0----|
----------------------------|--0--------3----|----------|
-----------0----------------|--0-----2-------|--2-------|
----------------------------|--2-----0-------|--2-------|
----------------------------|--3-------------|--2-------|
----------------------------|----------------|----------|

                                                     
--0--------0L-0--3-----2L-2--0----------------------|
--------3-----------------------3-----0-----3--3----|
--0-----------------------2-------------------------|
--------------------------0-------------------------|
--3-------------------------------------------------|
----------------------------------------------------|

                                                     
-----------0-----------------------------------0----|
--3-----------------0L----------------------0-------|
--2-----------------0L----------------------0-------|
--2-----------------2L----------------------2-------|
----------------------------------------------------|
----------------------------------------------------|

                                                     
--0--------0L-0--3-----2L-2--0--------------7-------|
--------3-----------------------3-----0-------------|
--0-----------------------2-------------------------|
--------------------------0-------------------------|
--3-------------------------------------------------|
----------------------------------------------------|

                             
--7--------5-----2----------|
-----------3-----0--3-------|
--7-------------------------|
--5-----------------4-------|
----------------------------|
----------------------------|

                                                     
--7-----7--7L-7--------------------5L-5-------------|
-----------------8-----7L-7--8-----------8----------|
--7-----------------------7-------------------------|
----------------------------------------------------|
--10----------------------9-------------------------|
--10----------------------10------------------------|

                                                     
-----0-----2--3--2--7--5L-5-------------------------|
--0-----3-------------------------------------------|
--2-----------------------0-------------------------|
--4-----------------------2-------------------------|
--2-------------------------------------------------|
----------------------------------------------------|

                                                     
--3-----3--3L-3--3-----3--3--3--2--0--------2L------|
--1-----------------------0-----------3-----0-------|
----------------------------------------------------|
--2-----------------------0-----------------2-------|
--0-----------------------2-----------------3-------|
----------------------------------------------------|

                             
--2--3--------0--3--7-------|
-----------0-----0--5-------|
--------------0-------------|
-----------2----------------|
----------------------------|
----------------------------|

                                                              
--7--7--5-----5-----8--7--3-----2-----------3L------|--3----||
----------------------------------------------------|-------||
--------------------5-------------------------------|-------||
--10----------------------------------5-------------|-------||
--10----------------5-------------------------------|-------||
--10----------------------------------5-------------|-------||


Chorus [A]
                                        
-3-----2--3-----7-----2-----0----------|
-0-----------------------------3-------|
o--------------------------------------|
o2-------------------------------------|
---------------------------------------|
-2-------------------------------------|

                                         
-----3L-------3-------------------------|
--1-------------------------------------|
--0-------------------------------------|
----------------------------------------|
--3-------------------------------------|
----------------------------------------|

                                         
--3-----2--3-----7-----7--2--0----------|
--0-----------------------------3L------|
--0-------------------------------------|
----------------------------------------|
----------------------------------------|
--5-------------------------------------|

                                                                
-----5-----------------------3----------|--5--7-----------3----|
--3-------------------------------------|--0-------------------|
--2-------------------------------------|----------------------|
--4-------------------------------------|--2-------------------|
----------------------------------------|----------------------|
--0-------------------------------------|--2-------------------|

                                         
--10-------10L10----7-----5-----3-------|
----------------------------------------|
--9-------------------------------------|
--10------------------------------------|
--10------------------------------------|
--10------------------------------------|

                                                                             
--3-----------------------2-------------|--3-----5---||--3----|--0-----5----|
--0--3L----------3----------------------|------------||--0----|--1----------|
--0-------------------------------------|--2--------o||-------|--0----------|
----------------------------------------|--0--------o||--2----|-------------|
----------------------------------------|------------||-------|--3----------|
--5-------------------------------------|--0---------||--2----|-------------|

                                                                  
-------|--------2----|-------|--0-----5----|--------7----|--5----|
--0----|-------------|--0----|--1----------|--0----------|-------|
--2----|--2----------|--0----|--0----------|-------------|--2----|
-------|--2----------|-------|-------------|--0----------|--4----|
-------|--5----------|-------|--3----------|-------------|--5----|
--5----|-------------|--2----|-------------|--5----------|-------|



Verse [B]
                                                     
--0--------0L-0--3-----2L-2--0----------------------|
--------3-----1-----------------3-----0-----3--3----|
--------0-------------------------------------------|
--------------------------------------2-------------|
--3-----------------------------0-------------------|
--------------------------0-------------------------|

                                                     
-----------0L-0-------------------------------------|
--3L----3-----------0-----------------3-------------|
--------------------0-------------------------------|
--------------4-----------------------4-------------|
--------2-------------------------------------------|
--2-------------------------------------------------|

                                                     
--0--------0L-0--3-----2L-2--0--------------7-------|
--------3-----1-----------------3-----0-------------|
--------0-------------------------------------------|
--------------------------------------2-------------|
--3-----------------------------0-------------------|
--------------------------0-------------------------|

                             
--7--------0----------------|
----------------------------|
-----------1----------------|
--------4-------------------|
--7--2--------------2-------|
----------------------------|

                                                     
--7-----7--7L-7--------------------5L-5-------------|
-----------------8-----7L-7--8L-8--------8----------|
--------------7-----------7-------------------------|
----------------------------------------------------|
--------10----------------------------9-------------|
--10----------------------0-----7-------------------|

                                                     
-----0-----2--3--2--7--5--------------------3--3----|
--0-----3-------------------------------------------|
--2-----------------------------------0-------------|
--4-------------------------------------------------|
--2-----------------------------2-------------------|
--------------------------2-------------------------|

                                                     
--3-----3--3L-3--3-----3--3--3--2--0--------2L------|
--------------1-----------------0-----3-----0-------|
----------------------------------------------------|
--------2-----------------------0-----------2-------|
--0-----------------------2-----------------3-------|
----------------------------------------------------|

                             
--2--3L-------3-------------|
----------------------------|
--------------0-------------|
----------------------------|
----------------------------|
----------------------------|

                                                                       
--7--7--5--5--5-----8--7--3-----2L----2--3L-3L------|--3-------------||
----------------------------------------------------|--0-------------||
--------0-----------------2-------------------------|-----------2----||
--------------------0-----------------------0-------|-----------0----||
--3-------------------------------------------------|----------------||
--------------------------------------5-------------|--------4-------||


Chorus [B]
                                        
-3-----2--3L-3--7-----2L-2--0----------|
-------------------------------3L------|
o--------------------------------------|
o2-----------4-----------5-------------|
-------2-------------------------------|
-2-------------------------------------|

                                         
-----3L-3-----------0-------------------|
--3-----------1-------------------------|
--------0-------------------------------|
----------------------------------------|
--3-------------------------------------|
----------------------------------------|

                                         
--3-----2--3L-3--7-----7--2--0----------|
--------------0-----------------3L------|
--------------------------0-------------|
--------0-------------------------------|
----------------------------------------|
--5-------------------------------------|

                                                                
-----5L-5--------------------3----------|--5--7-----------3----|
--3-------------------------------------|----------------------|
----------------------------------------|-----------0L-0-------|
--------------2-----4-------------------|--2-----4-------------|
--------0-------------------------------|-----2----------------|
--0-------------------------------------|--2-------------------|

                                         
--10-------10L10----7-----5-----3-------|
----------------------------------------|
--------------------------9-------------|
--------------10------------------------|
--------10------------------------------|
--10------------------------------------|

                                                                         
--3-----------------------2-------------|--3-----------5------||--3----||
-----3L-3-------------------------------|---------------------||-------||
--------------2-----0-------------------|--------------------o||-------||
--------0-------------------------------|--------2--4--------o||-------||
----------------------------------------|-----0---------------||-------||
--5-------------------------------------|--0------------------||--5----||


Chorus [C] (Transposed)
                                        
-4-----3--4L-4--8-----3L-3--1----------|
-------------------------------4L------|
o--------------------------------------|
o3-----------5-----------6-------------|
-------3-------------------------------|
-3-------------------------------------|

                                         
-----4L-4-----------1-------------------|
--4-----------2-------------------------|
--------1-------------------------------|
----------------------------------------|
--4-------------------------------------|
----------------------------------------|

                                         
--4-----3--4L-4--8-----8--3--1----------|
--------------1-----------------4L------|
--------------------------1-------------|
--------1-------------------------------|
----------------------------------------|
--6-------------------------------------|

                                                                
-----6L-6--------------------4----------|--6--8-----------4----|
--4-------------------------------------|----------------------|
----------------------------------------|-----------1L-1-------|
--------------3-----5-------------------|--3-----5-------------|
--------1-------------------------------|-----3----------------|
--1-------------------------------------|--3-------------------|

                                         
--11-------11L11----8-----6-----4-------|
----------------------------------------|
--------------------------10------------|
--------------11------------------------|
--------11------------------------------|
--11------------------------------------|

                                                                
--4-----------------------3-------------|--4-----------6------||
-----4L-4-------------------------------|---------------------||
--------------3-----1-------------------|--------------------o||
--------1-------------------------------|--------3--5--------o||
----------------------------------------|-----1---------------||
--6-------------------------------------|--1------------------||


Outro
                                                                     
--4L-4L-4L-4----------|-----------1----------|----------------------|
--------------4-------|--------2-------------|-----------------4----|
--------0--1----------|-----1--------3-------|--5-----------6-------|
----------------------|----------------------|--------5--6----------|
-----3----------------|--4-------------------|-----3----------------|
--3-------------------|----------------------|--6-------------------|

                                                                     
----------------------|----------------------|--1-------------------|
----------------------|-----------1--2--4----|----------------------|
--0--------------0----|--1-----0-------------|--------1-----3-------|
--------1--3----------|----------------------|-----3-----3-----3----|
-----1----------------|-----3----------------|--4-------------------|
--1-------------------|--3-------------------|----------------------|

                                                                     
----------------------|--------------1--3----|--4-----3-------------|
-----------------4----|----------------------|--------------4-------|
--5-----------6-------|--0--------3----------|----------------------|
--------5--6----------|--------1-------------|--------5--6-----6----|
-----3----------------|-----1----------------|-----3----------------|
--6-------------------|--1-------------------|--3-------------------|

                                              
--1-----------1-------|----------------------|
--------4-------------|-----------------4----|
-----------1-----3----|--5-----------6-------|
-----3----------------|--------5--6----------|
--4-------------------|-----3----------------|
----------------------|--6-------------------|

                                                                
----------------------------------------|--------4-----6-------|
--4-----------------2--1----------------|--------------4-------|
--------------------------3-----1--3----|--5-------------------|
--------------1-------------------------|--------5--6-----6----|
--------1-------------------------------|-----3----------------|
--1-------------------------------------|--3-------------------|

                                                                     
--8-------------------|--------------8-------|--6-------------------|
--------9-------------|--------9-------------|--------9-----8-------|
--------------10------|--8--------------8----|----------------------|
-----------11---------|-----------6----------|-----------8-----8----|
-----8--11-------11---|--------10------------|--6-----6-------------|
--11------------------|--6--10---------------|-----8----------------|

                ^
-----3--6----|--4L---|--4----||
--4----------|-------|-------||
-------------|--5L---|--5----||
-------------|-------|-------||
-------------|--3L---|--3----||
-------------|--6L---|--6----||

Legend
L - tied note
x - dead note
h - hammer on/pull off
b - bend
s - slide
~ - vibrato
g - ghost note
> - accentuated note
t - trill
M - palm mute
. - staccato
P - popping (bass)
S - slapping (bass)
+ - tapping
W - wide vibrato
< - fade in
w - whammy bar
= - tremolo picking
v - brush up
^ - brush down
V - pick stroke up
n - pick stroke down
        
Comments

No comments yet