Gametabs
Home
Tabs
Random

Main Menu

Average rating: 5.000

3 ratings

Composer:

Tabber:

Style:

Instrument:

Created: December 10, 2015 at 12:00 AM

            Song: Main Menu
Game: Life Is Strange
Composers: Jonathan Morali
Tabbed by: samisito
Tabbed at: 12/10/2015


 ----- Symbols -----

	h	Hammer-Up
	()	Silent Note


Tuning: Standar E Tuning (EADGBe)
Capo on fret 3


Intro

e|-2---2---2---2---|-2---2---2---2---|-----------------|-----------------|
B|---3---3---3---3-|---3---3---3---3-|-3---3---3---3---|-3---3---3---3---|
G|-----------------|-----------------|---2---2---2---2-|---2---2---2---2-|
D|-----------------|-----------------|-----------------|-----------------|
A|-----------------|-----------------|-----------------|-----------------|
E|-----------------|-----------------|-----------------|-----------------|


e|-2---2---2---2---|-2---2---2---2---|-2---2---2---2---|-2---2---2---2---|
B|---3---3---3---3-|---3---3---3---3-|---3---3---3---3-|---3---3---3---3-|
G|-2---------------|-----------------|-2---------------|-----------------|
D|---------4-------|-----------------|---------4-------|-----------------|
A|-0---------------|-----------------|-0---------------|-----------------|
E|-----------------|-----------------|-----------------|-----------------|


e|-0---0---0---0---|-0---0---0---0---|-2---2---2---2---|-2---2---2---2---|
B|-2-2---2-0-0---0-|-2-2---2-0-0---0-|---3---3---3---3-|---3---3---3---3-|
G|-----------------|-----------------|-2---------2-----|-2---------------|
D|---------2-------|-2---------------|-------4---------|-----------------|
A|-0---------------|---------0-------|-0---------------|-----------------|
E|-----------------|-----------------|-----------------|-----------------|


e|-2---2---2---2---|-2---2---2---2---|-2---2---2---2---|-2---2---2---2---|
B|---3---3---3---3-|---3---3---3---3-|---3---3---3---3-|---3---3---3---3-|
G|-2---------2-----|-2---------------|-2---------2-----|-2---------------|
D|-------4---------|-----------------|-------4---------|-----------------|
A|-0---------------|-----------------|-0---------------|-----------------|
E|-----------------|-----------------|-----------------|-----------------|


e|-0---0---0---0---|-0---0---0---0---|-2---2---2---2---|-2---2---2---2---|
B|-2-2---2-0-0---0-|-2-2---2-0-0---0-|---3---2---3---3-|---3---3---3---3-|
G|-----------------|-----------------|-----------------|-----------------|
D|---------2-------|-2---------------|-0---------0-----|-0---------------|
A|-0---------------|---------0-------|-------0---------|-----------------|
E|-----------------|-----------------|-----------------|-----------------|


e|-2---2-----------|---------0-------|-----------------|-----------------|
B|---------3---3---|-2---2-----------|-2---------------|-3---3---3---3---|
G|---4---4---4---4-|---2---2-2---2---|-2---2---2---2---|---2---2---2---2-|
D|---------4-------|-----------2---2-|---4---4---2---2-|-0---------------|
A|-2---------------|-0-------0-------|---------4-------|-----------------|
E|-----------------|-----------------|-2---------------|-----------------|


e|-2---2-----------|---------0-------|-----------------|-----------------|
B|---------3---3---|-2---2-----------|-2---------------|-3---3---3---3---|
G|---4---4---4---4-|---2---2-2---2---|-2---2---2---2---|---2---2---2---2-|
D|---------4-------|-----------2---2-|---4---4---4---4-|-0---------------|
A|-2---------------|-0-------0-------|-----------------|-----------------|
E|-----------------|-----------------|-2---------------|-----------------|


Part A

e|-2---2---2---2---|-2---2---2---2---|-2---2---2---2---|-2---2---2---2---|
B|---3---2---3---3-|---3---3---3---3-|---3---2---3---3-|---3---3---3---3-|
G|-----------------|-----------------|-----------------|-----------------|
D|-0---------0-----|-0---------------|-0---------0-----|-0---------------|
A|-------0---------|-----------------|-------0---------|-----------------|
E|-----------------|-----------------|-----------------|-----------------|


e|-0---0---0---0---|-0---0---0---0---|-2---2---2---2---|-2---2---2---2---|
B|-0h2---2---2---2-|-2-2---2-0-0---0-|---3---2---3---3-|---3---3---3---3-|
G|-----------------|-----------------|-----------------|-----------------|
D|-----------------|---------2-------|-0---------0-----|-0---2---4---0---|
A|-0-----0---0-----|-0---------------|-------0---------|-----------------|
E|-----------------|-----------------|-----------------|-----------------|


e|-2---2---2---2---|-2---2---2---2---|-2---2---2---2---|-2---2---2---2---|
B|---3---2---3---3-|---3---3---3---3-|---3---2---3---3-|---3---3---3---3-|
G|-----------------|-----------------|-----------------|-----------------|
D|-0---------0-----|-0---------------|-0---------0-----|-0---------------|
A|-0-----0---------|-----------------|-------0---------|-----------------|
E|-----------------|-----------------|-----------------|-----------------|


e|-0---0---0---0---|-0---0---0---0---|-2---2---2---2---|-2---2---2---2---|
B|-0h2---2---2---2-|-2-2---2-0-0---0-|---3---2---3---3-|---3---3---3---3-|
G|-----------------|-----------------|-----------------|-----------------|
D|-----------------|---------2-------|-0---------0-----|-0---------------|
A|-0-----0---0-----|-0---------------|-------0---------|-----------------|
E|-----------------|-----------------|-----------------|-----------------|


e|-2---2-----------|---------0-------|-----------------|-----------------|
B|---------3---3---|-2---2-----------|-2---------------|-3---3---3---3---|
G|---4---4---4---4-|---2---2-2---2---|-2---2---2---2---|---2---2---2---2-|
D|---------4-------|-----------2---2-|---4---4---2---2-|-0---------------|
A|-2---------------|-0-------0-------|---------4-------|-----------------|
E|-----------------|-----------------|-2---------------|-----------------|


e|-2---2-----------|---------5---5---|-----------------|-----------------|
B|---------3---3---|-2---2-----2---2-|-2---------------|-3---3---3---3---|
G|---4---4---4---4-|---2---2-2-------|-2---2---2---2---|---2---2---2---2-|
D|---------4-------|-----------------|---4---4---4---4-|-0---------------|
A|-2---------------|-0-------0-------|-----------------|-----------------|
E|-----------------|-----------------|-2---------------|-----------------|


e|-2---2-----------|---------0-------|-----------------|-----------------|
B|---------3---3---|-2---2-----------|-2---------------|-3---3---3---3---|
G|---4---4---4---4-|---2---2-2---2---|-2---2---2---2---|---2---2---2---2-|
D|---------4-------|-----------2---2-|---4---4---2---2-|-0---------------|
A|-2---------------|-0-------0-------|---------4-------|-----------------|
E|-----------------|-----------------|-2---------------|-----------------|


e|---------3---3---|-3---3---3---3---|---------5---5---|-3---3---3---3---|
B|-0---0-----0---0-|---0---0---0---0-|-2---2-----2---2-|---2---2---2---2-|
G|---0---0-0-------|(0)--------------|---2---2---------|-2---------------|
D|-0---------------|-----------------|---------2-------|-----------------|
A|---------2-------|-----------------|-0---------------|-----------------|
E|-3---------------|-----------------|-----------------|-----------------|


e|-3---3---3---3---|-3---3---3---3---|
B|---2---2---2---2-|---2---2---2---2-|
G|(2)--------------|(2)--------------|
D|-----------------|-----------------|
A|-----------------|-----------------|
E|-----------------|-----------------|


Part B

e|-2---2---2---2---|-2---2---2---2---|-2---2---2---2---|-2---2---2---2---|
B|---3---2---3---3-|---3---3---3---3-|---3---2---3---3-|---3---3---3---3-|
G|-----------------|-----------------|-----------------|-----------------|
D|-0---------0-----|-0---------------|-0---------0-----|-0---------------|
A|-------0---------|-----------------|-------0---------|-----------------|
E|-----------------|-----------------|-----------------|-----------------|


e|-0---0---0---0---|-0---0---0---0---|-2---2---2---2---|-2---2---2---2---|
B|-0h2---2---2---2-|-2-2---2-0-0---0-|---3---2---3---3-|---3---3---3---3-|
G|-----------------|-----------------|-----------------|-----------------|
D|-----------------|---------2-------|-0---------0-----|-0---------------|
A|-0-----0---0-----|-0---------------|-------0---------|-----------------|
E|-----------------|-----------------|-----------------|-----------------|


e|-2---2---2---2---|-2---2---2---2---|-2---2---2---2---|-2---2---2---2---|
B|---3---2---3---3-|---3---3---3---3-|---3---2---3---3-|---3---3---3---3-|
G|-----------------|-----------------|-----------------|-----------------|
D|-0---------0-----|-0-------2---4---|-0---------0-----|-0---------------|
A|-------0---------|-----------------|-0-----0---------|-----------------|
E|-----------------|-----------------|-----------------|-----------------|


e|-0---0---0---0---|-0---0---0---0---|-2---2---2---2---|-2---2---2---2---|
B|-0h2---2---2---2-|-2-2---2-0-0---0-|---3---2---3---3-|---3---3---3---3-|
G|-----------------|-----------------|-----------------|-----------------|
D|-----------------|---------2-------|-0---------0-----|-0---------------|
A|-0-----0---0-----|-0---------------|-------0---------|-----------------|
E|-----------------|-----------------|-----------------|-----------------|


e|-----------------|-----------------|-----------------|-----------------|
B|-2---2---0---0---|-0---------------|-2---------------|-3---3---3---3---|
G|-------4-------4-|-2---2---2-------|-2---2---2---2---|---2---2---2---2-|
D|---4-------4-----|---2---2-2---2---|---4---4---4---4-|-0---------------|
A|-2-------2-------|-0---------0---0-|-----------------|-----------------|
E|-----------------|---------2-------|-2---------------|-----------------|


e|-----------------|-----------------|-----------------|-----------------|
B|-2---2---0---0---|-0-------2---2---|-3---3---3---3---|-3---3---3---3---|
G|-------4-------4-|-2---2---2-2---2-|-------2---2---2-|---2---2---2---2-|
D|---4-------4-----|---2---2---------|-----------------|-0---------------|
A|-2-------2-------|-0-------0-------|-4h5-------------|-----------------|
E|-----------------|-----------------|-----------------|-----------------|


e|-----------------|-----------------|-----------------|-----------------|
B|-2---2---0---0---|-0---------------|-----------------|-3---3---3---3---|
G|-------4-------4-|-2---2---2-------|-2---2---2---2---|-------2---2---2-|
D|---4-------4-----|---2---2-2---2---|-2-2---2---2---2-|-----------------|
A|-2-------2-------|-0---------0---0-|---------4-------|-4h5-------------|
E|-----------------|---------2-------|-2---------------|-----------------|


e|---------3---3---|-3---3---3---3---|---------5---5---|-3---3---3---3---|
B|-0---0-----0---0-|---0---0---0---0-|-2---2-----2---2-|---2---2---2---2-|
G|---0---0-0-------|(0)--------------|---2---2---------|-2---------------|
D|-0---------------|-----------------|---------2-------|-----------------|
A|---------2-------|-----------------|-0---------------|-----------------|
E|-3---------------|-----------------|-----------------|-----------------|


e|-3---3---3---3---|-3---3---3---3---|
B|---2---2---2---2-|---2---2---2---2-|
G|(2)--------------|(2)--------------|
D|-----------------|-----------------|
A|-----------------|-----------------|
E|-----------------|-----------------|


Repeat Parts A and B the times you want :)


        
Comments

No comments yet