Gametabs
Home
Tabs
Random

Stage 6

Average rating: 3.000

2 ratings

Composer:

Tabber:

Style:

Instrument:

Created: June 09, 2014 at 12:00 AM

            Life Force (NES) 1986
Stage 6 (Fortress Zone)
The song is technically called "Destroy Them All"
Tabbed by iloveamanda12

Such a great game. One of my all-time favorites! Typically, of NES and 8-bit games,
it has great and extremely catchy music, too. Enjoy!

This one was extremely hard to line up correctly. Guitar one plays a lot more notes
than guitar 2. I tried my best to have it at least close.

 guitar 1
E|--------10----------10----------10----------10-|
B|----11----------11----------11----------11-----|
G|10----------10----------10----------10---------|
D|-----------------------------------------------|
A|-----------------------------------------------|
E|-----------------------------------------------|

 guitar 2
E|--------10----------10----------10----------10-|
B|----11----------11----------11----------11-----|
G|10----------10----------10----------10---------|
D|-----------------------------------------------|
A|-----------------------------------------------|
E|-----------------------------------------------|

==========

 guitar 1
--------12----------12----------12----------12-|
----13----------13----------13----------13-----|
12----------12----------12----------12---------|
-----------------------------------------------|
-----------------------------------------------|
-----------------------------------------------|

 guitar 2
--------12----------12----------12----------12-|
----13----------13----------13----------13-----|
12----------12----------12----------12---------|
-----------------------------------------------|
-----------------------------------------------|
-----------------------------------------------|

==========

 guitar 1
--------10----------10----------10----------10-|
----11----------11----------11----------11-----|
10----------10----------10----------10---------|
-----------------------------------------------|
-----------------------------------------------|
-----------------------------------------------|

 guitar 2
--------10----------10----------10----------10-|
----11----------11----------11----------11-----|
10----------10----------10----------10---------|
-----------------------------------------------|
-----------------------------------------------|
-----------------------------------------------|

==========

 guitar 1
--------15----------15----------15----------15--17-|
----13----------13----------13----------13---------|
12----------12----------12----------12-------------|
---------------------------------------------------|
---------------------------------------------------|
---------------------------------------------------|

 guitar 2
--------15----------15----------15----------15-----|
----13----------13----------13----------13------15-|
12----------12----------12----------12-------------|
---------------------------------------------------|
---------------------------------------------------|
---------------------------------------------------|

==========
This section repeats infinitely

 guitar 1                                                                          
e|------------------------------------------------------------------------------17-|
B|------15-----------------------------------------------10--12--13--12------------|
G|17----------16--------14---------------------------12------------------12--------|
D|-----------------17--------------------------12----------------------------------|
A|-------------------------------------15--15--------------------------------------|
E|---------------------------------------------------------------------------------|

 guitar 2
E|------------------------------------------------------------------------------10-|
B|---------------------------------------------------------------------------------|
G|10-10-12--------------------------------------------9----------12----------------|
D|------------12---12---12--------------8--8--10-----------------------------------|
A|---------------------------------------------------------------------------------|
E|---------------------------------------------------------------------------------|

==========

 guitar 1                                                                          
e|--------------------------------------------------------------------------|
B|------15------------------------------------------------------------------|
G|17----------16--------14----------------------------12--------------------|
D|-----------------17--------------------------12------------------------12-|
A|-------------------------------------15--15-------------------------------|
E|--------------------------------------------------------------------------|

 guitar 2
E|--------------------------------------------------------------------------|
B|--------------------------------------------------------------------------|
G|10-10-12--------------------------------------------12--------------------|
D|------------12---12---12--------------8--8--10-------------------------12-|
A|--------------------------------------------------------------------------|
E|--------------------------------------------------------------------------|

==========

 guitar 1
--------8----------8-------------------------|
----10-----10---------10--------------13-----|
10-------------10---------10------10---------|
------------------------------12----------12-|
---------------------------------------------|
---------------------------------------------|

 guitar 2
---------------------------------------------|
--------10--13--10----13--10--------------13-|
----10-------------10---------10------10-----|
12--------------------------------12---------|
---------------------------------------------|
---------------------------------------------|

==========

 guitar 1
-----------------------------------------------|
--------12----------12------------------12--14-|
10--13------13--10------13--10------10---------|
--------------------------------12-------------|
-----------------------------------------------|
-----------------------------------------------|

 guitar 2
-----------------------------------------------|
13--------------12----------12-----------------|
--------10--13------13--10------13--10------10-|
----12----------------------------------12-----|
-----------------------------------------------|
-----------------------------------------------|

==========

 guitar 1
----16--19--16-------------------|
17--------------17---------------|
--------------------18---17------|
---------------------------------|
---------------------------------|
---------------------------------|
 guitar 2
------------16--19--16-----------|
----14--17---------------17------|
16----------------------------18-|
---------------------------------|
---------------------------------|
---------------------------------|

==========

 guitar 1
----15--18--15------17--15-----------|
16--------------16-------------------|
-------------------------------------|
-------------------------------------|
----------------------------------17-|
-------------------------------------|

 guitar 2
------------15---------------------------------|
--------16------16------18-----16--16--16--16--|
----17--------------17-------------------------|
17---------------------------------------------|
-----------------------------------------------|
-----------------------------------------------|

==========

 guitar 1
------------------------------------------------------|
---------------13----------13------------------13-----|
-----------14------14----------14---------------------|
-------15--------------15----------15--12--15------12-|
----17------------------------------------------------|
------------------------------------------------------|

 guitar 2
------------------------------------------------------|
----------------13----------13-----------------13-----|
------------14------14----------14--------------------|
--------15--------------15----------15--12--15-----12-|
17--17------------------------------------------------|
------------------------------------------------------|

==========

 guitar 1
--------------------------------------------12-|
--------12----------12------------------12-----|
10--13------13--10------13--10------10---------|
--------------------------------12-------------|
-----------------------------------------------|
-----------------------------------------------|

 guitar 2
-----------------------------------------------|
------------12----------12---------------------|
----10--13------13--10------13--10------10-----|
12----------------------------------12---------|
-----------------------------------------------|
-----------------------------------------------|

==========

 guitar 1
----19--22--19-----------------------------------------------------|
20--------------20------------------------18--17-------------------|
--------------------21----------------19-----------19--------------|
----------------------------------20-------------------------------|
------------------------22-----------------------------------------|
-------------------------------------------------------------------|

 guitar 2
--------15--19--22--19---------------------------------------------|
----17------------------20--------------------15-------------------|
16--------------------------21------------15-------17---15--15--15-|
--------------------------------------17---------------------------|
----------------------------------19-------------------------------|
-------------------------------------------------------------------|

==========

 guitar 1
13--12--13--15--13--12--------------19-|
------------------------13-------------|
---------------------------------------|
---------------------------------------|
---------------------------------------|
---------------------------------------|

 guitar 2
------------------------------------15-|
15------15--17--15---------------------|
----17--------------17-----------------|
------------------------17--17--17-----|
---------------------------------------|
---------------------------------------|

==========

 guitar 1
17--19--20--19------------------------------------12--13-|
----------------20--18--------18--------------13---------|
------------------------------------------14-------------|
----------------------------------15--17-----------------|
---------------------------------------------------------|
---------------------------------------------------------|

 guitar 2
----15--17--15-------------------------------------------|
18--------------17--15--------15------------------13--15-|
----------------------------------------------14---------|
--------------------------------------14--15-------------|
----------------------------------17---------------------|
---------------------------------------------------------|

==========

 guitar 1
12--13--15--13--12--------19---17--19--20--19------27----------|
--------------------13-------------------------20--------------|
---------------------------------------------------------------|
---------------------------------------------------------------|
---------------------------------------------------------------|
---------------------------------------------------------------|

 guitar 2
--------12---------------------15-13-15-17-15---------------------------12----10-|
13--15------15--13-----------------------------15-----------14----15-------------|
--------------------12-12-12------------------------16---------------------------|
---------------------------------------------------------------------------------|
---------------------------------------------------------------------------------|
---------------------------------------------------------------------------------|
        
Comments

No comments yet