Gametabs
Home
Tabs
Random

Stage 5

Average rating: 3.000

2 ratings

Composer:

Tabber:

Style:

Instrument:

Created: June 09, 2014 at 12:00 AM

            Life Force (NES) 1986
Stage 5 (Temple Zone)
The song is technically called "Thunderbolt"
Tabbed by iloveamanda12

Such a great game. One of my all-time favorites! Typically, of NES and 8-bit games,
it has great and extremely catchy music, too. Enjoy!

I tried to lay this out symmetrically. It's difficult to a point, being that a 20 and a 7 don't line up, for example.
Enjoy!


This repeats infinitely

 guitar 1
e|8---10---11-----10--------8-----8---10---11--------10--------13------15-|
B|---------------------11---------------------------------11--------------|
G|------------------------------------------------------------------------|
D|------------------------------------------------------------------------|
A|------------------------------------------------------------------------|
E|------------------------------------------------------------------------|

 guitar 2
E|------------------------------------------------------------------------|
B|-------------------------------------------------------------10------12-|
G|-----10---12----10--------10--9-------10--12-------10-------------------|
D|13-------------------12-----------13--------------------12--------------|
A|------------------------------------------------------------------------|
E|------------------------------------------------------------------------|

==========

 guitar 1
e|---11-10-----------------------------------------------------------------------|
B|13-------11-13-------11--------------------------------------------------------|
G|---------------12-10----12----10-------------------5---------------------------|
D|---------------------------13----12-10-13-12----------------5------------------|
A|----------------------------------------------13-------------------------------|
E|-------------------------------------------------------------------------------|

 guitar 2
e|---11-10-----------------------------------------------------------------------|
B|13-------11-13-------11--------------------------------------------------------|
G|---------------12-10----12----10-------------------5---------------------------|
D|---------------------------13----12-10-13-12----------------5------------------|
A|----------------------------------------------13-------------------------------|
E|-------------------------------------------------------------------------------|

==========

 guitar 1
e|---11-10-----------------------------------------------------------------------|
B|13-------11-13-------11-------------------------------------8------------------|
G|---------------12-10----12----10-------------------5---------------------------|
D|---------------------------13----12-10-13-12-----------------------------------|
A|----------------------------------------------13-------------------------------|
E|-------------------------------------------------------------------------------|

 guitar 2
e|---11-10-----------------------------------------------------------------------|
B|13-------11-13-------11-------------------------------------8------------------|
G|---------------12-10----12----10-------------------5---------------------------|
D|---------------------------13----12-10-13-12-----------------------------------|
A|----------------------------------------------13-------------------------------|
E|-------------------------------------------------------------------------------|

==========

 guitar 1
e|---11-10--------------------------------------------------------------------13-|
B|13-------11-13-------11---------------------------------------------12---------|
G|---------------12-10----12----10---------------------------12------------------|
D|---------------------------13----12-10-13-12-------12--------------------------|
A|----------------------------------------------13-------------------------------|
E|-------------------------------------------------------------------------------|

 guitar 2
e|---11-10--------------------------------------------------------------------13-|
B|13-------11-13-10----11-10------------------------------------------12---------|
G|------------------12-------10-12-------10------------------12------------------|
D|---------------------------------13-12----13-------12--------------------------|
A|----------------------------------------------13-------------------------------|
E|-------------------------------------------------------------------------------|

==========

 guitar 1
e|11---13---14---13--11-11-----|
B|--------------------------13-|
G|-----------------------------|
D|-----------------------------|
A|-----------------------------|
E|-----------------------------|

 guitar 2
e|-----------------------------|
B|11---10---9----10--11-11-----|
G|--------------------------12-|
D|-----------------------------|
A|-----------------------------|
E|-----------------------------|

==========

 guitar 1
e|---16----20------------16----------------------------------|
B|------16-----------------------------16--------------------|
G|17---------------20-17---------17----------14-14-14-----14-|
D|--------------18------------------18----17-----------17----|
A|----------------------------18-----------------------------|
E|-----------------------------------------------------------|

 guitar 2
e|---16----20------------16----------------------------------|
B|------16-----------------------------16--------------------|
G|17---------------20-17---------17----------14-14-14-----14-|
D|--------------18------------------18----17-----------17----|
A|----------------------------18-----------------------------|
E|-----------------------------------------------------------|

==========

 guitar 1
e|---16----20------------16-------------------------------------------------|
B|------16-----------------------------16-15-16-16-16--15-16------18--16-15-|
G|17---------------20-17---------17-----------------------------------------|
D|--------------18------------------18--------------------------------------|
A|----------------------------18--------------------------------------------|
E|--------------------------------------------------------------------------|

 guitar 2
e|---16----20------------16-------------------------------------------------|
B|------16-----------------------------16-15-16-16-16--15-16------18--16-15-|
G|17---------------20-17---------17-----------------------------------------|
D|--------------18------------------18--------------------------------------|
A|----------------------------18--------------------------------------------|
E|--------------------------------------------------------------------------|

==========

 guitar 1
e|20-16----20---16-------16---------------|
B|------16---------16---------16-------16-|
G|--------------------17---------17-------|
D|----------------------------------18----|
A|----------------------------------------|
E|----------------------------------------|

 guitar 2
e|20-16----20---16-------16---------------|
B|------16---------16---------16-------16-|
G|--------------------17---------17-------|
D|----------------------------------18----|
A|----------------------------------------|
E|----------------------------------------|

==========

 guitar 1
e|--------------------------------------------------------------|
B|--------------------------------------12-12-12-----12------12-|
G|---14-14-14-----14-----------12-14-14-----------14------------|
D|17-----------17-----------15----------------------------------|
A|--------------------------------------------------------------|
E|--------------------------------------------------------------|

 guitar 2
e|--------------------------------------------------------------|
B|--------------------------------------12-12-12-----12------12-|
G|---14-14-14-----14-----------12-14-14-----------14------------|
D|17-----------17-----------15----------------------------------|
A|--------------------------------------------------------------|
E|--------------------------------------------------------------|
        
Comments

No comments yet