Gametabs
Home
Tabs
Random

Stage 4

Average rating: 3.000

2 ratings

Composer:

Tabber:

Style:

Instrument:

Created: June 09, 2014 at 12:00 AM

            Life Force (NES) 1986
Stage 4 (Organic Speed Zone)
The song is technically called "Burn the Wind"
Tabbed by iloveamanda12

Such a great game. One of my all-time favorites! Typically, of NES and 8-bit games,
it has great and extremely catchy music, too. Enjoy!

 bass
G|----------------------------------3-----------|
D|----------------0--2--------------------------|
A|3------------------------1-------------3------|
E|--------------------------------------------3-|

G|--------------------------------10--6-------------|
D|---------0-----------------------------6--3-------|
A|0--------------------------------------------4----|
E|-----------------------3------------------------4-|

This section repeats infinitely
 
G|---------5-----------------5-------|
D|---5-----------5-----5-----------5-|
A|3-----3-----3-----3-----3-----3----|
E|-----------------------------------|

G|---------5-----------------5-------|
D|---3-----------3-----3-----------3-|
A|3-----3-----3-----3-----3-----3----|
E|-----------------------------------|

G|---------5-----------------7-------|
D|---6-----------6-----8-----------8-|
A|-----------------------------------|
E|8-----8-----8-----8-----8-----8----|

G|---------9-----0-----0-----9-----0-|
D|-----------------------------------|
A|---10------------------------------|
E|8------8----8-----8-----8-----8----|

G|---0-----------0-----0-----------0-|
D|---------10----------------10------|
A|-----------------------------------|
E|8-----8-----8-----8-----8-----8----|

G|---------5-----------------5-------|
D|---3-----------3-----3-----------3-|
A|3-----3-----3-----3-----3-----3----|
E|-----------------------------------|

G|---------5-----------------7-------|
D|---6-----------6-----8-----------8-|
A|-----------------------------------|
E|8-----8-----8-----8-----8-----8----|

G|---------9-----0-----0-----9-----0-|
D|-----------------------------------|
A|---10------------------------------|
E|8------8----8-----8-----8-----8----|

G|------5--------5--------5----------|
D|---5--------5--------5--------5----|
A|3--------3--------3--------3-----3-|
E|-----------------------------------|

G|------8--------8--------8----------|
D|---8--------8--------8--------8----|
A|6--------6--------6--------6-----6-|
E|-----------------------------------|

G|------7--------7--------7----------|
D|---7--------7--------7--------7----|
A|5--------5--------5--------5-----5-|
E|-----------------------------------|

G|------6--------6--------6--------6-|
D|---6--------6--------6--------6----|
A|4--------4--------4--------4-------|
E|-----------------------------------|

G|------5--------5--------5----------|
D|---5--------5--------5--------5----|
A|3--------3--------3--------3-----3-|
E|-----------------------------------|

G|------8--------8--------8----------|
D|---8--------8--------8--------8----|
A|6--------6--------6--------6-----6-|
E|-----------------------------------|

G|------7--------7--------7----------|
D|---7--------7--------7--------7----|
A|5--------5--------5--------5-----5-|
E|-----------------------------------|

G|------6--------6--------6--------6-|
D|---6--------6--------6--------6----|
A|4--------4--------4--------4-------|
E|-----------------------------------|
 
G|------5-----5--------------17------17--24-|
D|---5-----5-----17------17------17---------|
A|3------------------15---------------------|
E|------------------------------------------|
        
Comments

No comments yet