Gametabs
Home
Tabs
Random

Stage 4

Average rating: 3.000

2 ratings

Composer:

Tabber:

Style:

Instrument:

Created: June 09, 2014 at 12:00 AM

            Life Force (NES) 1986
Stage 4 (Organic Speed Zone)
The song is technically called "Burn the Wind"
Tabbed by iloveamanda12

Such a great game. One of my all-time favorites! Typically, of NES and 8-bit games,
it has great and extremely catchy music, too.

I tried to lay this out symmetrically. It's difficult to a point, being that a 20 and a 7 don't line up, for example.
Enjoy!

 guitar 1
E|15--13--12------15--13--12--------------------------------------20-|
B|------------13----------------13-----------------------------------|
G|-------------------------------------------------------------------|
D|----------------------------------12/------------------------------|
A|-------------------------------------------------------------------|
E|-------------------------------------------------------------------|

 guitar 2
E|----15--13---------------------------------------------------------|
B|17-----------------------------------------------------------------|
G|------------------------------17--------------------------------15-|
D|------------17--15--14------------17--15--17--15--14--10-----------|
A|------------------------15-----------------------------------------|
E|-------------------------------------------------------------------|

==========

 guitar 1
e|-------------------17--20----25-----21--16-----------------|
B|20-18--17------18---------------------------18-------------|
G|-----------17-----------------------------------18---------|
D|----------------------------------------------------18--15-|
A|-----------------------------------------------------------|
E|-----------------------------------------------------------|

 guitar 2
e|------------------------------------21--16--21--16---------|
B|----------------------------------------------------18-----|
G|14-12------------------14----12-------------------------18-|
D|-------15--14--12--15--------------------------------------|
A|-----------------------------------------------------------|
E|-----------------------------------------------------------|

==========
This section repeats infinitely

 guitar 1
e|----------------------------------------------------------| }
B|-------------------------------------------------------13-| }
G|------------12------15-------------------------14---------| }
D|----13---------------------------------15-----------------| }
A|15------15------15-----------------15------15------15-----| }
E|----------------------------------------------------------| }
                                                              }
 guitar 2                                                     }
e|----------------------------------------------------------| }
B|-------------------------------------------------------13-| }
G|------------12------15-------------------------14---------| }
D|----13---------------------------------15-----------------| }
A|15------15------15-----------------15------15------15-----| }
E|----------------------------------------------------------| }
                                                              }
==========                                                    }
                                                              } x2
 guitar 1                                                     }
e|------------------------11----10----11----13---12--13--15-| }
B|----------------13----------------------------------------| }
G|-----13-----13------13------------------------------------| }
D|----------------------------------------------------------| }
A|15-------15-----------------------------------------------| }
E|----------------------------------------------------------| }
                                                              }
 guitar 2                                                     }
e|-------------------------------------------------------12-| }
B|----------------13------11----13----15----15---13--15-----| }
G|-----13-----13------13------------------------------------| }
D|----------------------------------------------------------| }
A|15-------15-----------------------------------------------| }
E|----------------------------------------------------------| }

==========

 guitar 1
e|14--14----14----15-----------14--14----14----15-------|
B|----------------------16---------------------------16-|
G|------------------------------------------------------|
D|------------------------------------------------------|
A|------------------------------------------------------|
E|------------------------------------------------------|

 guitar 2
e|14--14----14----15-----------14--14----14----15-------|
B|----------------------16---------------------------16-|
G|------------------------------------------------------|
D|------------------------------------------------------|
A|------------------------------------------------------|
E|------------------------------------------------------|

==========

 guitar 1
e|14--14----14----15----17-----18--------16----18----16-|
B|------------------------------------------------------|
G|------------------------------------------------------|
D|------------------------------------------------------|
A|------------------------------------------------------|
E|------------------------------------------------------|


 guitar 2
e|14--14----14----15----17-----18--------16----18----16-|
B|------------------------------------------------------|
G|------------------------------------------------------|
D|------------------------------------------------------|
A|------------------------------------------------------|
E|------------------------------------------------------|

==========

 guitar 1
e|14--14----14----15-----------14--14----14----15-------|
B|----------------------16---------------------------16-|
G|------------------------------------------------------|
D|------------------------------------------------------|
A|------------------------------------------------------|
E|------------------------------------------------------|

 guitar 2
e|------------------------------------------------------|
B|------------------------------------------------------|
G|16--16----16----17-----------16--16----16----17-------|
D|----------------------17---------------------------17-|
A|------------------------------------------------------|
E|------------------------------------------------------|

==========

 guitar 1
e|14--14----14----15----17-----18--------16----18----16-|
B|------------------------------------------------------|
G|------------------------------------------------------|
D|------------------------------------------------------|
A|------------------------------------------------------|
E|------------------------------------------------------|

 guitar 2
e|---------------------------------------------------12-|
B|----------------------15-----16--------14--16--14-----|
G|16--16----16----17------------------------------------|
D|------------------------------------------------------|
A|------------------------------------------------------|
E|------------------------------------------------------|
        
Comments

No comments yet