Gametabs
Home
Tabs
Random

Stage 3

Average rating: 3.000

2 ratings

Composer:

Tabber:

Style:

Instrument:

Created: June 09, 2014 at 12:00 AM

            Life Force (NES) 1986
Stage 3 (Burning Chaos)
The song is technically called "Planet Latis"
Tabbed by iloveamanda12

Such a great game. One of my all-time favorites! Typically, of NES and 8-bit games,
it has great and extremely catchy music, too. Enjoy!

  bass
G|-----------------------------3-----3-----3-----3-|
D|-----5-----5-----5-----5-------------------------|
A|--3-----3-----3-----3-----3-----3-----3-----3----|
E|-------------------------------------------------|

G|-----5-----5-----5-----5-----7-----7-----7-----7-|
D|-------------------------------------------------|
A|--3-----3-----3-----3----------------------------|
E|--------------------------8-----8-----8-----8----|
 
G|-----------------------------3-----3-----3-----3-|
D|-----5-----5-----5-----5-------------------------|
A|--3-----3-----3-----3-----3-----3-----3-----3----|
E|-------------------------------------------------|

G|-----5-----5-----5-----5-----7-----7-----7-----7-|
D|-------------------------------------------------|
A|--3-----3-----3-----3----------------------------|
E|--------------------------8-----8-----8-----8----|

This section repeats infinitely

G|--------5--------5--------5--------3-----3-------------12-15-|
D|-----5--------5--------5--------5-----5-----15------12-------|
A|--3--------3--------3--------3------------------13-----------|
E|-------------------------------------------------------------|

G|--------5--------5--------5--------3-----3-------------15-19-|
D|-----5--------5--------5--------5-----5-----15------17-------|
A|--3--------3--------3--------3-------------------------------|
E|------------------------------------------------17-----------|

G|-----------------------------------3------3------3-------|
D|-------6------6------6------6----3------3------3---3---3-|
A|-----6------6------6------6----------1------1------------|
E|--4------4------4------4------6--------------------------|

G|-----8--7-------------------5------5------5------5-|
D|-----------8--------------5------5------5------5---|
A|--8--------------------3------3------3------3------|
E|---------------------------------------------------|

G|-------3------3------3------3------5------5------5------5-|
D|-----3------3------3------3------6------6------6------6---|
A|--3------3------3------3------3------3------3------3------|
E|----------------------------------------------------------|

G|-------6------6------6------6------5------5------5------5-|
D|-----6------6------6------6------5------5------5------5---|
A|--3------3------3------3------3------3------3------3------|
E|----------------------------------------------------------|

G|-------3------3------3------3------5------5------5------5-|
D|-----3------3------3------3------6------6------6------6---|
A|--3------3------3------3------3------3------3------3------|
E|----------------------------------------------------------|

G|------6---6-10-6----13-18-------13--------------------------------------|
D|----6---6--------15-------18-15----15--------------10---------10--------|
A|--3-----------------------------------16-------10---------10---------10-|
E|-----------------------------------------16-8----------8----------8-----|

G|-----------------------10-------12-15-|
D|--10---------8------8------8----------|
A|---------10-----10-----------12-------|
E|------8-------------------------------|
        
Comments

No comments yet