Gametabs
Home
Tabs
Random

Stage 3

Average rating: 3.000

2 ratings

Composer:

Tabber:

Style:

Instrument:

Created: June 09, 2014 at 12:00 AM

            Life Force (NES) 1986
Stage 3 (Burning Chaos)
The song is technically called "Planet Latis"
Tabbed by iloveamanda12

Such a great game. One of my all-time favorites! Typically, of NES and 8-bit games,
it has great and extremely catchy music, too.

I tried to lay this out symmetrically. It's difficult to a point, being that a 20 and a 7 don't line up, for example.
Enjoy!

 guitar 1
e|-----------------------------------------------------13----------------| }
B|13---------------15----------------16----------------------------------| }
G|-----------------------------------------------------------------------| }
D|-----------------------------------------------------------------------| }
A|-----------------------------------------------------------------------| }
E|-----------------------------------------------------------------------| }
                                                                           } x2
 guitar 2                                                                  }
E|---3-----3-----3-----6-----6-----6-----4-----4-----4-----6-----6-----6-| }
B|4-----4-----4-----6-----6-----6-----4-----4-----4-----6-----6-----6----| }
G|-----------------------------------------------------------------------| }
D|-----------------------------------------------------------------------| }
A|-----------------------------------------------------------------------| }
E|-----------------------------------------------------------------------| }

==========
This section repeats infinitely

 guitar 1
e|---13-13----15-15-------------13-13---------13-13----15-15-------------13-13-|
B|---------------------16-16------------------------------------16-16----------|
G|-----------------------------------------------------------------------------|
D|15-------15-------15-------15------------15-------15-------15-------15-------|
A|-----------------------------------------------------------------------------|
E|-----------------------------------------------------------------------------|

 guitar 2
e|----1--1-----3--3--------------1--1----------1--1-----3--3--------------1--1-|
B|----------------------4--4------------------------------------4--4-----------|
G|-----------------------------------------------------------------------------|
D|-----------------------------------------------------------------------------|
A|3---------3--------3--------3-------------3--------3--------3--------3-------|
E|-----------------------------------------------------------------------------|

==========

 guitar 1
e|---------------------------------------------|
B|---16-16-------------15-15-------------------|
G|------------17-17-------------15-15----17-17-|
D|18-------18-------18-------18----------------|
A|---------------------------------------------|
E|---------------------------------------------|

 guitar 2
e|---------------------------------------------|
B|----4--4-----1--1-----3--3--------------1--1-|
G|-1--------1--------1--------1--3--3----------|
D|---------------------------------------------|
A|---------------------------------------------|
E|---------------------------------------------|

==========

 guitar 1
e|----------------------13------13--15--13------------------------------13------13--15--/16|
B|/13--15--16--15---16------16--------------16--14--13--15--16--15--16------16-------------|
G|-----------------------------------------------------------------------------------------|
D|-----------------------------------------------------------------------------------------|
A|-----------------------------------------------------------------------------------------|
E|-----------------------------------------------------------------------------------------|

 guitar 2
e|----------------------13------13--15--13------------------------------13------13--15--/16|
B|/13--15--16--15---16------16--------------16--14--13--15--16--15--16------16-------------|
G|-----------------------------------------------------------------------------------------|
D|-----------------------------------------------------------------------------------------|
A|-----------------------------------------------------------------------------------------|
E|-----------------------------------------------------------------------------------------|
        
Comments

No comments yet