Gametabs
Home
Tabs
Random

Stage 2

Average rating: 3.000

2 ratings

Composer:

Tabber:

Style:

Instrument:

Created: June 09, 2014 at 12:00 AM

            Life Force (NES) 1986
Stage 2 (Volcano)
The song is technically called "Starfield"
Tabbed by iloveamanda12

Such a great game. One of my all-time favorites! Typically, of NES and 8-bit games,
it has great and extremely catchy music, too.

  bass                 
G|-------------------------------------------------|
D|-------------------------------------------------|
A|3------------------------------------------------|
E|-------------------4------------------6----------|

G|--------------------------------------------5----|
D|-------------------------------------------------|
A|------------------------3--3--3--3--3--3--3---3--|
E|3--------3-3-3--3-3-3----------------------------|

This section repeats infinitely

G|--------------------1-------------------------3---|
D|--------------------------------------------------|
A|--------------------------1--1--1--1--1--1--1---1-|
E|4--4--4--4--4--4--4---4---------------------------|
 
G|-------------0------0-------------------------5---|
D|--------------------------------------------------|
A|--------------------------3--3--3--3--3--3--3---3-|
E|3--3--3--3--3--3--3---3---------------------------|
  
G|--------------------1-------------------------3---|
D|--------------------------------------------------|
A|--------------------------1--1--1--1--1--1--1---1-|
E|4--4--4--4--4--4--4---4---------------------------|

G|--------------0------0---------1------1------1------1-|
D|-----------------------------1------1------1------1---|
A|------------------------------------------------------|
E|3--3--3--3--3---3--3---3--4------4------4------4------|
 
G|-----0------0------0------0-----------------------------|
D|---1------1------1------1--------3------3------3------3-|
A|-------------------------------3------3------3------3---|
E|3------3------3------3------1------1------1------1------|

G|--------------------------------1------1------1------1-|
D|--1------1----1-----1---3-----1------1------1------1---|
A|1------1-----------------------------------------------|
E|----------------------1----4------4------4------4------|

G|-----0------0------0------0------------------------------|
D|---1------1------1------1---------3------3------3------3-|
A|--------------------------------3------3------3------3---|
E|3------3------3------3-------1------1------1------1------|
  
G|-----0------0------0------0----------------------5---|
D|---0------0------0------0----------------------------|
A|-----------------------------3--3--3--3--3--3--3---3-|
E|3------3------3------3-------------------------------|
        
Comments

No comments yet