Gametabs
Home
Tabs
Random

Stage 1

Average rating: 3.000

2 ratings

Composer:

Tabber:

Style:

Instrument:

Created: June 09, 2014 at 12:00 AM

            Life Force (NES) 1986
Stage 1 (Bionic Germ)
The song is technically called "The Power of Anger"
Tabbed by iloveamanda12

Such a great game. One of my all-time favorites! Typically, of NES and 8-bit games,
it has great and extremely catchy music, too. Enjoy!

  bass  
G|-----3-----3----------3-----3------------3-----3----------------------|
D|-------------------------------------------------------------3--------|
A|--1-----1----------1-----1------------1-----1-------------------3-----|
E|-------------------------------------------------------1-----------1--|

G|-----3-----3----------3-----3---------------3-----------0--5----------|
D|-----------------------------------------3----------------------------|
A|--1-----1----------1-----1------------1--------------3----------------|
E|----------------------------------------------------------------------|

This section repeats infinitely

G|-----2-----5-----7-----------5-----7-----------5-----7-----------5-----7--| }
D|--0-----0-----0-----0--7--0-----0-----0--7--0-----0-----0--7--0-----0-----| }
A|--------------------------------------------------------------------------| }
E|--------------------------------------------------------------------------| }
                                                                              }
G|-----------5-----7-----------5-----7-----------5-----7-----------5-----7--| }
D|--0--7--0-----0-----0--7--0-----0-----0--7--0-----0-----0--7--0-----0-----| } x2
A|--------------------------------------------------------------------------| }
E|--------------------------------------------------------------------------| }
                                                                              }
G|-----0-----------5-----0-----3-----5-----0-----3-----5-----0-----3-----5--| }
D|-----------8--------------------------------------------------------------| }
A|--------------------3-----3-----3-----3-----3-----3-----3-----3-----3-----| }
E|--8-----8-----8-----------------------------------------------------------| }

G|--------------------------------------------------------------------------|
D|-----3-----3-----3-----3-----3-----3-----3-----3-----3-----3-----3-----3--|
A|--------------------1-----------------1-----------------1-----------------|
E|--6-----4-----1-----------4-----1-----------4-----1-----------4-----1-----|

G|--------------------------------------------------------------------------|
D|-----2-----2-----2-----2-----2-----2-----2-----2-----2-----2-----2-----2--|
A|--0-----------------0-----------------0-----------------0-----------------|
E|--------3-----0-----------3-----0-----------3-----0-----------3-----0-----|
 
G|--------------------------------------------------------------------------|
D|-----3-----3-----3-----3-----3-----3-----3-----3-----3-----3-----3-----3--|
A|--1-----------------1-----------------1-----------------1-----------------|
E|--------4-----1-----------4-----1-----------4-----1-----------4-----1-----|

G|--------------------------------------|
D|-----2-----2-----2-----2-----2-----2--|
A|--0-----------------0-----------------|
E|--------3-----0-----------3-----0-----|
        
Comments

No comments yet