Gametabs
Home
Tabs
Random

Stage 1

Average rating: 3.000

2 ratings

Composer:

Tabber:

Style:

Instrument:

Created: June 02, 2014 at 12:00 AM

            Life Force (NES) 1986
Stage 1 (Bionic Germ)
The song is technically called "The Power of Anger"
Tabbed by iloveamanda12

Such a great game. One of my all-time favorites! Typically, of NES and 8-bit games,
it has great and extremely catchy music, too.

I tried to lay this out symmetrically. It's difficult to a point, being that a 20 and a 7 don't line up, for example.
Enjoy!

 guitar 1
e|18------18-16----15--------------16-18-20-18----18-16----15----|
B|----18--------16----18--------16-------------18-------16----18-|
G|------------------------17-19----------------------------------|
D|---------------------------------------------------------------|
A|---------------------------------------------------------------|
E|---------------------------------------------------------------|

 guitar 2
e|10-------------------------------------16-10-------------------|
B|----11--13-----13---11-----------13-16-------11-13----13----11-|
G|-----------13--------------15-13-------------------13----------|
D|------------------------15-------------------------------------|
A|---------------------------------------------------------------|
E|---------------------------------------------------------------|

==========

 guitar 1
e|-----------\15----------/17----17-|
B|-----11-13--------13-15--------18-|
G|10-------------12-----------------|
D|----------------------------------|
A|----------------------------------|
E|----------------------------------|

 guitar 2
e|---------10-----------12-14----13-|
B|11----11----13-----13-------------|
G|---10----------12-----------------|
D|----------------------------------|
A|----------------------------------|
E|----------------------------------|

==========
This section repeats infinitely

 guitar 1                                  
e|-------------------------------------------------------------9---------| }
B|-------8----------------------------11-11--11-11--11-11-13-------11-13-| }
G|7-9-10---10-9-10-9-7-9-7-------7---------------------------------------| }
D|-------------------------10-7------------------------------------------| }
A|-----------------------------------------------------------------------| }
E|-----------------------------------------------------------------------| }
                                                                           } x2
 guitar 2                                                                  }
e|-----------------------------------------------------------------------| }
B|-------8---------------------------------------------------------------| }
G|7-9-10---10-9-10-9-7-9-7-------7----8--8---8--8---8--8--10---11--10--8-| }
D|-------------------------10-7------------------------------------------| }
A|-----------------------------------------------------------------------| }
E|-----------------------------------------------------------------------| }

==========

 guitar 1
e|-----------------------------------------------------------7-8-10-8-7----|
B|----------8-9-8-----------------------------------------10------------10-|
G|7--9--10--------10--9-10-9-7----7-----------7----------------------------|
D|-----------------------------10------7-9-10---10-9-7---------------------|
A|-------------------------------------------------------------------------|
E|-------------------------------------------------------------------------|

 guitar 2
e|-----------------------------------------------------------7-8-10-8-7----|
B|----------8-9-8-----------------------------------------10------------10-|
G|7--9--10--------10--9-10-9-7----7-----------7----------------------------|
D|-----------------------------10------7-9-10---10-9-7---------------------|
A|-------------------------------------------------------------------------|
E|-------------------------------------------------------------------------|

==========

 guitar 1
e|-------------15-16-15-----------------------------7-8-10-8-7--------------|
B|/15--17--18-----------18--17-18-17-15----15----10------------10--------15-|
G|--------------------------------------17----------------------------------|
D|--------------------------------------------------------------------------|
A|--------------------------------------------------------------------------|
E|--------------------------------------------------------------------------|

 guitar 2
e|-------------15-16-15-----------------------------7-8-10-8-7--------------|
B|/15--17--18-----------18--17-18-17-15----15----10------------10-----------|
G|--------------------------------------17-------------------------------10-|
D|--------------------------------------------------------------------------|
A|--------------------------------------------------------------------------|
E|--------------------------------------------------------------------------|
        
Comments

No comments yet