Gametabs
Home
Tabs
Random

Underworld

Average rating: 4.833

6 ratings

Composer:

Tabber:

Style:

Instrument:

Created: September 30, 2007 at 12:00 AM

            Melody
     H        Q    Q       Q    H.              H.           E  E
E||---------------------|--------------------|---------------------|
B||---------------------|--------------------|---------------------|
G||----------------7----|--6-----------------|------------------6--|
D||--5--------8---------|-------4------------|--3------------6-----|
A||---------------------|--------------------|---------------------|
E||---------------------|--------------------|---------------------|

  Q    H.              S S Q.     E.  E.  E     S S Q.     E.  E.  E
--------------------|------------------------|------------------------|
--------------------|------------------------|------------------------|
--5-----------------|-----------------8---7--|-----------------7---6--|
--------------------|-------------5----------|-------------5----------|
-------7------------|--6-5-6-----------------|--5-4-5-----------------|
--------------------|------------------------|------------------------|

  S S S S S S S S S S S S S S S S S S S S
--------------------------5---------------||
------------------------7---7-------------||
------------5---5-8-5-8-------8-5-8-5-----||
----4-7-4-7---7-----------------------7-4-||
--5---------------------------------------||
------------------------------------------||

Duration Legend
---------------
W - whole
H - half
Q - quarter
E - 8th
S - 16th
T - 32nd
X - 64th
. - note dotted
|-n-|  - n-tuplets





Harmony
      S  S  S  S  S  S  S  S  S  S  S  S  S  S  S  S
E||--------------------------------------------------|
B||--------15-16-------15-16-------15-16-------15-16-|
G||-----15----------15----------15----------15-------|
D||--17----------17----------17----------17----------|
A||--------------------------------------------------|
E||--------------------------------------------------|

   S  S  S  S  S  S  S  S  S  S  S  S  S  S  S  S
--------------------------------------------------|
--------15-16-------15-16-------15-16-------15-16-|
-----14----------14----------14----------14-------|
--16----------16----------16----------16----------|
--------------------------------------------------|
--------------------------------------------------|

   S  S  S  S  S  S  S  S  S  S  S  S  S  S  S  S
--------------------------------------------------|
--------15-16-------15-16-------15-16-------15-16-|
-----13----------13----------13----------13-------|
--15----------15----------15----------15----------|
--------------------------------------------------|
--------------------------------------------------|

   S  S  S  S  S  S  S  S  S  S  S  S  S  S  S  S
--------------------------------------------------|
--------15-16-------15-16-------15-16-------15-16-|
-----12----------12----------12----------12-------|
--14----------14----------14----------14----------|
--------------------------------------------------|
--------------------------------------------------|

   S  S  S  S  S  S  S  S  S  S  S  S  S  S  S  S
--------------------------------------------------|
--------13-15-------13-15-------13-15-------13-15-|
-----12----------12----------12----------12-------|
--13----------13----------13----------13----------|
--------------------------------------------------|
--------------------------------------------------|

   S  S  S  S  S  S  S  S  S  S  S  S  S  S  S  S
--------------------------------------------------|
--------13-15-------13-15-------13-15-------13-15-|
-----12----------12----------12----------12-------|
--12----------12----------12----------12----------|
--------------------------------------------------|
--------------------------------------------------|

   S  S  S  S  S  S  S  S  S  S  S S  S  S S  S  S S  S  S
-----------------------11-------11---11-14---14-17---17-20-||
-----------13-------13-------13----------------------------||
-----11-14----11-14-------14-------------------------------||
--12-------------------------------------------------------||
-----------------------------------------------------------||
-----------------------------------------------------------||

Duration Legend
---------------
W - whole
H - half
Q - quarter
E - 8th
S - 16th
T - 32nd
X - 64th
. - note dotted
|-n-|  - n-tuplets

        
Comments

@haggzzz (April 24, 2007 at 7:35 PM)

this rocks man right on i like it


@bob (July 18, 2007 at 12:54 AM)

yo it is cool


@Noah (August 14, 2007 at 1:52 PM)

Sweet. but when I open the text files after extracting them they aren't word wrapped.


@Nico (January 01, 2008 at 4:02 PM)

I Cannot understand this. Can you teach me?


@Anonymous (January 03, 2008 at 5:36 AM)


@Hervess (January 22, 2008 at 8:28 PM)

I love this mystique! Right on, keep up the good work!


@Darkstar742 (February 01, 2008 at 2:05 AM)

http://www.youtube.com/watch?v=cQSdfHoTHpo

There is a video of how he plays it.


@Darkstar742 (February 01, 2008 at 2:58 AM)

Oops, it was there the whole time haha. This is a pretty difficult song. Getting into the right position can be tricky.


@musenji (March 13, 2010 at 11:43 AM)

Great!

You can also lower the harmony part 12 frets for a classical, minus the 11th fret notes which can be moved down a string with little difficulty!


@Sugarheady (May 17, 2019 at 11:16 AM)

So i was goofing around with this tab and thought you could get the bass in the thumb for some simple finger picking. So heres some minor tweaks to maybe play solo.

Harmony
S  S  S  S  S  S  S  S  S  S  S  S  S  S  S  S
E||--------------------------------------------------|
B||---------3--4--------3--4--------3--4--------3--4-|
G||------3-----------3-----------3-----------3-------|
D||---5-----------5-----------5-----------5----------|
A||---------------------------------------5----------|
E||---3-----------------------6----------------------|

S  S  S  S  S  S  S  S  S  S  S  S  S  S  S  S
--------------------------------------------------|
---------3--4--------3--4--------3--4--------3--4-|
------2-----------2-----------2-----------2-------|
---4-----------4-----------4-----------4----------|
---4----------------------------------------------|
---------------2----------------------------------|

S  S  S  S  S  S  S  S  S  S  S  S  S  S  S  S
--------------------------------------------------|
---------3--4--------3--4--------3--4--------3--4-|
------1-----------1-----------1-------------------|
---3-----------3-----------3-----------3--6-------|
---------------------------------------------4----|
---1-----------------------------------4----------|

S  S  S  S  S  S  S  S  S  S  S  S  S  S  S  S
--------------------------------------------------|
---------3--4--------3--4--------3--4--------3--4-|
------0-----------0-----------0-----------0-------|
---2-----------2-----------2-----------2----------|
---3----------------------------------------------|
---------------0----------------------------------|

S  S  S  S  S  S  S  S  S  S  S  S  S  S  S  S
--------------------------------------------------|
---------1--3--------1--3--------1--3--------1--3-|
------0-----------0-----------0-----------0-------|
---1--0--1-----1-----------1-----------1-----0----|
--------------------------------------------------|
---------------------------------3----------------|

S  S  S  S  S  S  S  S  S  S  S  S  S  S  S  S
--------------------------------------------------|
---------1--3--------1--3--------1--3--------1--3-|
------0-----------0-----------0-----------0-------|
---0-----0-----0-----------0-----------0----------|
------4--------------------------------------4----|
---------------------------------3----------------|

S  S  S  S  S  S  S  S  S  S  S  S  S  S  S  S  S  S  S  S
------------------------------------------2-----2--5--2--5>>8-||
------------1--------1--4-----1--4--1--4-----4----------------||
---------2--------2--------2----------------------------------||
---0--4--------4----------------------------------------------||
--------------------------------------------------------------||
--------------------------------------------------------------||