Gametabs
Home
Tabs
Random

Zora's Domain

Average rating: 5.000

5 ratings

Composer:

Tabber:

Style:

Instrument:

Created: June 24, 2009 at 12:00 AM

            Song: Zora's Domain Theme (Arranged for Two Guitars)
Game: Twilight Princess (Ocarina of Time)
Composer: Koji Kondo, Yoshiko Kawamoto
Tabber: corovanmoro
Date: June 24, 2009

Hello, guys. I made a video on YouTube recently where I played a duet with myself of the Zora's Domain theme. 
A couple of people requested tabs, and so here they are! It's actually an arrangement of the Twilight Princess
version of the song, but it's not too different from the OoT version.


Main Guitar Part

     S S S S S S S S Q       S S S S S S S S Q       S S S S S S S S Q     
E||--7--------------------|--5--------------------|--3--------------------|
B||----8---8--------------|----6---6--------------|----4---4--------------|
G||------7---7-4----------|------5---5-2----------|------3---3-0----------|
D||--------------5--------|--------------3--------|--------------1--------|
A||----------------5-L----|----------------3-L----|----------------1-L----|
E||-----------------------|-----------------------|-----------------------|
 
 
       ^                                              
  Q    W                     Q    S S S  E.  E.  E.   
--3----2----------------||------------5p-2-----------|
-------1----------------||----------3--------3-------|
-------2----------------||*-------4--------------4---|
-------0----------------||*--------------------------|
------------------------||---------------------------|
------------------------||---------------------------|
 
 
  E  S S S S S  E.  E.  E.     E.  S S E   S H         
-------------5p-2-----------|----------3p--0-L--------|
-----3---3----------3-------|--------5----------------|
-------4---4------------4---|------5------------------|
----------------------------|-------------------------|
----------------------------|-------------------------|
----------------------------|-------------------------|
 
 
  S S S  S S  S  S E  S S S S  S  S  S    H        E  S  S S  S S  S  
-------------------0------0-2h-3p-2p-0-|--2--------L--3p-2-3p-2------|
------0h-1-0h-1h-3----1-3--------------|------------------------0h-3-|
----2----------------------------------|-----------------------------|
---------------------------------------|-----------------------------|
---------------------------------------|-----------------------------|
---------------------------------------|-----------------------------|
 
 
  H        E.  E  S   S S    E.  E  S  H        E   
-----------7------------7-|------------------------|
--L------------7--8h-10---|--7---------------------|
--------------------------|------7--7s-9--------L--|
--------------------------|------------------------|
--------------------------|------------------------|
--------------------------|------------------------|
 
 
  S S  S S Q    S S S E   S. S.    H        E  S S S E  S  
----8p-7------------------------|--------------------2----|
---------8--------5---8p--7p-5--|------------------3------|
-----------7----5---5-----------|--7--------L--2-4------2-|
--------------------------------|-------------------------|
--------------------------------|-------------------------|
--------------------------------|-------------------------|
 
 
  S S S S S S S S S S S S S E  S     E  S H.           S  
------2-------2-------2-----2-----|-------7------------L-|
----3-------3-------3-----3-------|-----5----------------|
--4-----2-4-----2-4-----4------4h-|--5-------------------|
----------------------------------|----------------------|
----------------------------------|----------------------|
----------------------------------|----------------------|
 
 
  E   E  S X S. S X S. S. T T. S. S X S    S T  T  H.           E   
-----10--7-L----------------------------|--------------------------|
-------------8--5-L-8--5-------7--5-L-7-|--5-7p-5p-3------------L--|
--------------------------5-L-----------|--------------------------|
----------------------------------------|--------------------------|
----------------------------------------|--------------------------|
----------------------------------------|--------------------------|
 
 
  E  S S S  E.  S S S S Q       S E  S E  S Q    S Q     
---------2h-5---L-2----------|---------7----------------|
-------3------------3--------|-------5----7-5----L-L----|
-----4----------------2-L----|----4---------------------|
-----------------------------|--------------------------|
-----------------------------|--------------------------|
-----------------------------|--------------------------|
 
 
  S S S S S S E.  S S E  E.     E  S S S E  S S S S E  E.   
----7------------------------|--5--------5----5--------5---|
------8---7------------------|---------7------------7------|
--------9---7---------7--L---|-------7------------7--------|
--------------7-------7--L---|-----9--------9---9----------|
------------------7-9--------|-----------------------------|
-----------------------------|-----------------------------|
 
 
  E  S S S E  E  S S S Q       E  S S S E  E  S S S S E.   
--4--------4-----------4----|--3--------3-------------3---|
---------5----5------5------|---------5---------5---5-----|
-------6-----------6--------|-------5-------------5-------|
-----8-----------8----------|-----7--------7--7-----------|
----------------------------|-----------------------------|
----------------------------|-----------------------------|
 
 
  S S S S S E  S S S S S S E.     E  S S S E  S S S S E  E.   
----2-------2----2---------2---|--5--------5----5--------5---|
--------0-1----1-----0-1-3-----|---------7------------7------|
------2------------2-----------|-------7------------7--------|
-------------------------------|-----9--------9---9----------|
-------------------------------|-----------------------------|
-------------------------------|-----------------------------|
 
 
  E  S S S E  E  S S S Q       E  S S S E  E  S S S S E.   
--4--------4-----------4----|--3--------3-------------3---|
---------5----5------5------|---------5---------5---5-----|
-------6-----------6--------|-------5-------------5-------|
-----8-----------8----------|-----7--------7--------------|
----------------------------|-----------------------------|
----------------------------|-----------------------------|
 
 
  S S S S S E  S S S S S S E.     E  S S S E  S S S S E  E.   
----2-------2----2---------2---|-----------------------------|
--------0-1----1-----0-1-3-----|--3--------3----3--------3---|
------2------------2-----------|---------2------------2------|
-------------------------------|-------4------------4--------|
-------------------------------|-----2--------2---2----------|
-------------------------------|-----------------------------|
 
 
  E  S S S E  E  S S S Q       E  S S S E  E.  S S S E.   
----------------------------|----------------------------|
--2--------2-----------2----|--1--------1------------1---|
---------1----1------1------|---------0--------0---0-----|
-------2-----------2--------|-------2------------2-------|
-----1-----------1----------|-----0--------0-------------|
----------------------------|----------------------------|
 
 
                                     ^                  
  S S S S S E  S S S S S S E.        W                  
----2-------2----2---------2-----||-------------------||
--------0-1----1-----0-1-3-------||--3----------------||
------2------------2-----------*-||--4----------------||
--0----------------------------*-||--4----------------||
---------------------------------||--5----------------||
---------------------------------||--3----------------||
 

Background Guitar

     H.              H.              H.              W                Q     
E||---------------|---------------|---------------|------------------------|
B||---------------|---------------|---------------|------------------------|
G||---------------|---------------|---------------|------------------------|
D||---------------|---------------|---------------|------------------------|
A||---------------|---------------|---------------|------------------------|
E||---------------|---------------|---------------|------------------------|
 
 
    E.  E.  H        E     E.  E.  H        E     E.  E.  H        E   
|-----------------------|----------------------|----------------------|
|-----------0--------L--|----------0--------L--|----------0--------L--|
|*----------0--------L--|----------0--------L--|----------0--------L--|
|*------0---------------|------0---------------|------2---------------|
|-----------------------|----------------------|--3-------------------|
|---3-------------------|--3-------------------|----------------------|
 
 
  E.  E.  H        E     E.  E.  H        E     E.  E.  H        E   
----------------------|----------------------|----------------------|
----------0--------L--|----------0--------L--|----------0--------L--|
----------0--------L--|----------0--------L--|----------0--------L--|
------2---------------|------0---------------|------0---------------|
--3-------------------|----------------------|----------------------|
----------------------|--3-------------------|--3-------------------|
 
 
  E.  E.  H        E     E.  E.  H        E     E.  E.  H        E   
----------------------|----------------------|----------------------|
----------0--------L--|----------0--------L--|----------0--------L--|
----------0--------L--|----------0--------L--|----------0--------L--|
------2---------------|------2---------------|------0---------------|
--3-------------------|--3-------------------|----------------------|
----------------------|----------------------|--3-------------------|
 
 
  E.  E.  H        E     E.  E.  H        E     E.  E.  H        E   
----------------------|----------------------|----------------------|
----------0--------L--|----------0--------L--|----------0--------L--|
----------0--------L--|----------0--------L--|----------0--------L--|
------0---------------|------2---------------|------2---------------|
----------------------|--3-------------------|--3-------------------|
--3-------------------|----------------------|----------------------|
 
 
  E.  E.  H        E     E.  E.  H        E     E.  E.  H        E   
----------------------|----------------------|----------------------|
----------0--------L--|----------0--------L--|----------0--------L--|
----------0--------L--|----------0--------L--|----------0--------L--|
------0---------------|------0---------------|------2---------------|
----------------------|----------------------|--3-------------------|
--3-------------------|--3-------------------|----------------------|
 
 
  W                   W                   W                   W                 
-------------------|-------------------|-------------------|-------------------|
-------------------|--3----------------|--2----------------|--1----------------|
-------------------|--2----------------|--1----------------|--0----------------|
-------------------|--4----------------|--2----------------|--2----------------|
-------------------|--2----------------|--1----------------|--0----------------|
-------------------|-------------------|-------------------|-------------------|
 
 
  W                   W                   W                   W                 
--2----------------|-------------------|-------------------|-------------------|
--1----------------|--3----------------|--2----------------|--1----------------|
--2----------------|--2----------------|--1----------------|--0----------------|
--0----------------|--4----------------|--2----------------|--2----------------|
-------------------|--2----------------|--1----------------|--0----------------|
-------------------|-------------------|-------------------|-------------------|
 
 
  W                   W                   W                   W                 
--2----------------|--5----------------|--4----------------|--3----------------|
--1----------------|--7----------------|--5----------------|--5----------------|
--2----------------|--7----------------|--6----------------|--5----------------|
--0----------------|--9----------------|--8----------------|--7----------------|
-------------------|-------------------|-------------------|-------------------|
-------------------|-------------------|-------------------|-------------------|
 
 
  W                                         
--2------------------||-------------------||
--1------------------||-------------------||
--2----------------*-||-------------------||
--0----------------*-||-------------------||
---------------------||-------------------||
---------------------||-------------------||
 
 
 
 
Duration Legend
---------------
W - whole
H - half
Q - quarter
E - 8th
S - 16th
T - 32nd
X - 64th
. - note dotted
|-n-|  - n-tuplets
 
 
Tablature Legend
----------------
L - tied note
x - dead note
g - grace note
(n) - ghost note
> - accentuded note
NH - natural harmonic
AH - artificial harmonic
TH - tapped harmonic
SH - semi harmonic
PH - pitch harmonic
h - hammer on
p - pull off
b - bend
br - bendRelease
pb - preBend
pbr - preBendRelease
brb - bendReleaseBend
\n/ - tremolo bar dip
\n - tremolo bar dive
-/n - tremolo bar Release up
/n\ - tremolo bar inverted dip
/n - tremolo bar return
-\n - tremolo bar Release down
S - shift slide
s - legato slide
/ -  slide into from below or out of upwards
\ -  slide into from above or out of downwards
~ - vibrato
W - wide vibrato
tr - tril'
TP - tremolo picking
T - tapping
S - slap
P - pop
< - fade in
^ - brush up
v - brush down

        
Comments

@Vic9mm (June 25, 2009 at 1:07 AM)

Wow this is really beautiful to listen to you did a fantastic job playing this and got a new subscriber on youtube. Nice tab bro 5 stars easy :)


@sparsh15 (October 15, 2012 at 10:47 PM)

Awesome song but can you please provide the solo in the tab too? I know it has nothing to do with the song but I really want to play the whole song including the solo in my school's talent show. Please provide the solo!