Gametabs
Home
Tabs
Random

Title Screen

Average rating: 4.143

7 ratings

Composer:

Tabber:

Style:

Instrument:

Created: September 30, 2007 at 12:00 AM

            Title Screen           from The Legend of Zelda : Twilight Princess

Music by Koji Kondo, Asuka Ohta, Toru Minegishi >> piano arrang. by K. Boman >> tab by Diralark

Guitar, tempo 65

     IV                                             IV                    
                                                    ^                     
     H        E  E  E  E     S S H.           E     H        E  E  E  E   
E||--4--------L--------4--|--2---2------------L--|--4--------L--------4--|
B||--------------4--4-----|----5-----------------|--------------4--4-----|
G||-----------------------|----------------------|--5--------L--------5--|
D||-----------------------|----------------------|--------------6--6-----|
A||-----------------------|----------------------|-----------------------|
E||-----------------------|----------------------|-----------------------|


                           II                       IV                I     
                           ^                             ^                  
  S S H.           E       Q.     E  E  E  E  E     S  S Q    E  Q    Q     
--2---2------------L--||---4------------------4--|-------------------------|
----5-----------------||---2------------2--2-----|--7--5-4------------0----|
--4-------------------||*------------2-----------|-------4-----------------|
----------------------||*---------2--------------|---------------6---------|
----------------------||---0---------------------|------------6-------7----|
----------------------||-------------------------|--4----------------------|


  II                        IV                             II                     
  ^                   ^                                    ^                      
  Q    E  E  E  E  E  E     S  S Q    E  Q    S S S S      Q.     E  E  E  E  E   
-------4--------------7--|------------------------0-2--||--4------------------4--|
--2----2--------5--5--5--|--4----4------------2-4------||--2------------2--2-----|
--2----------2--6--6-----|--4--6-4-------1------------*||------------2-----------|
-------------------------|----------------------------*||---------2--------------|
----------4--------------|------------2----------------||--0---------------------|
--2----------------------|--0--------------------------||------------------------|


  IV                I       II          IV                                  
       ^                    ^           ^              ^                    
  S  S Q    E  Q    Q       S  S Q.     S  S Q.        S S H.           E   
-------------------------|--------------------------|--0---7------------L--|
--7--5-4------------0----|--2--4-5------4--5-7------|----7--------------L--|
-------4-----------------|--------------4-----------|--6-------------------|
---------------6---------|--4-----------6-----------|----------------------|
------------6-------7----|--------------------------|--0-------------------|
--4----------------------|--2-----------4-----------|----------------------|


  VII                       IX       Da Capo    IV             
  ^                         ^                                          
  S   S H        E  Q       W                   Q    E  E  Q    E  E   
--------7--------L--7----|--9----------------|--L-------4----------4--|
--7-----7--------L--7----|--9----------------|-------------4----------|
------9------------------|-------------------|-------6----------6-----|
--9----------------------|-------------------|------------------------|
-------------------------|-------------------|------------------------|
--7----------------------|--9----------------|------------------------|


  --      -]                                   
  Q    E  E  E  E  E  E     W                  
----------4-----7-----0--|-------------------||
--4----------5-----7-----|--4----------------||
-------6-----------------|-------------------||
-------------------------|-------------------||
-------------------------|-------------------||
-------------------------|-------------------||

Legend
---------------
W - whole
H - half
Q - quarter
E - 8th
S - 16th
. - note dotted
L - tied note
^ - brush up
        
Comments

@Pistachio (March 18, 2007 at 4:25 PM)

nice tab


@BirdmanTM (April 07, 2007 at 7:48 PM)

in the words of borat: nice!


@cameron (May 06, 2007 at 8:25 PM)

the g and b are switched


@elena (May 07, 2007 at 6:42 PM)

yeah, but its still a cool tab


@Laura (May 08, 2007 at 10:01 PM)

Oh, I see. Oops ^^;


@Snoggums (May 11, 2007 at 3:44 AM)

Man this is a GREAT tab! I love it! It's probably my favorite on here, it's so pretty! ^___^


@Snoggums (May 15, 2007 at 7:24 AM)

Hmm, one part sounds weird...

e--5---------5-3-1-0----------5-------8-0---0--
G--------3-3------------------------------3----
B-----------------------5--7------6-6----------

OMG did you switch the B and the G?! XD

Yea, the 6-6 part is supposed to be the second string, not the third, that's the problem right there.


@Laura (May 16, 2007 at 7:18 PM)

maan XD I've made quite a few mistakes here. Ill fix this and send it in to archard.


@Mathew (September 17, 2007 at 11:23 AM)

Nice job I have been looking for a good Zelda Tab :)


@Guitarningirl (September 21, 2007 at 5:39 AM)

dude, i love nintendo, i love zelda, and i LOVE this tab for sure!