Gametabs
Home
Tabs
Random

Sacred Grove

Average rating: 5.000

2 ratings

Composer:

Tabber:

Style:

Instrument:

Created: June 11, 2010 at 12:00 AM

            Song: Sacred Grove
Game: Legend Of Zelda: Twilight Princess
Composer(s): Koji Kondo, Asuka Ohta, Toru Minegishi
Tabbed by: Daugreano
 
Nothing but 8th notes...and the melody is just Lost Woods or Saria's Song...

Guitar: 
                                 2x                                2x                                2x
E|---------------------------------|---------------------------------|---------------------------------|
B|-------------1---------------1---|---------------------------------|-------------1---------------1---|
G|---------2---------------2-------|-------------0---------------0---|---------2---------------2-------|
D|-2---3-----------2---3-----------|---------2---------------2-------|-2---3-----------2---3-----------|
A|---------------------------------|-2---3-----------2---3-----------|---------------------------------|
E|---------------------------------|---------------------------------|---------------------------------|

                                 2x                                2x                                2x
E|---------------------------------|---------------------------------|---------------------------------|
B|---------------------------------|-------------1---------------1---|---------------------------------|
G|-------------0---------------0---|---------2---------------2-------|-------------0---------------0---|
D|---------2---------------2-------|-2---3-----------2---3-----------|---------2---------------2-------|
A|-2---3-----------2---3-----------|---------------------------------|-2---3-----------2---3-----------|
E|---------------------------------|---------------------------------|---------------------------------|

                                 2x                               2x   From here...
E|---------------------------------|---------------------------------|---------------------------------|
B|-------------1---------------1---|---------------------------------|---------------------------------|
G|---------2---------------2-------|-------------0---------------0---|-------------2---------------2---|
D|-2---3-----------2---3-----------|---------2---------------2-------|-----0---3-----------0---3-------|
A|---------------------------------|-2---3-----------2---3-----------|-3---------------3---------------|
E|---------------------------------|---------------------------------|---------------------------------|

                      ...To here 3x                                        
E|---------------------------------|---------------------------------|---------------------------------|
B|---------------------------------|---------------------------------|-------------0---------------0---|
G|-------------0---------------0---|-------------2---------------2---|---------0---------------0-------|
D|---------2---------------2-------|-----0---3-----------0---3-------|-----2---------------2-----------|
A|-2---3-----------2---3-----------|-3---------------3---------------|-3---------------3---------------|
E|---------------------------------|---------------------------------|---------------------------------|


E|-----------------------------0---|-------------0-------------------|
B|-------------0-----------0-------|---------0-------0---------------|
G|---------2-----------2-----------|-----1---------------1-----------|
D|-----2-----------2---------------|-2-----------------------2-------|
A|-2-------------------------------|-----------------------------2---|
E|---------------------------------|---------------------------------|



        
Comments

No comments yet