Gametabs
Home
Tabs
Random

Postman

Average rating: 4.000

1 ratings

Composer:

Tabber:

Style:

Instrument:

Created: March 03, 2010 at 12:00 AM

            LoZ: Twilight Princess
Postman
Composed by: Koji Kondo

Tabbed by: smiley





e |-------------------------------------------------------------|
B |----------6--------------------------------------------------|
G |--5-5-5-5---5-3r---5-5-5-5---5-3r----------------------------|
D |---------------------------1-------3--6r---------------------|
A |-------------------------------------------------------------|
E |-------------------------------------------------------------|


e |-------------------------------------------------------------|
B |-------------------------------------------------------------|
G |---5-5-5-5---5-3r---5-5-5-5---5-3r---5-5-5-5---5-3r----------|
D |----------1---------------------------------1-------3--6r----|
A |-------------------------------------------------------------|
E |-------------------------------------------------------------|


e |-------------------------------------------------------------|
B |-------------------------------------------------------------|
G |---5-5-5-5---5-3r---5-5-5-5---5-3r---5-5-5-5---5-3r----------|
D |----------1---------------------------------1-------3--6r----|
A |-------------------------------------------------------------|
E |-------------------------------------------------------------|


        
Comments

No comments yet